  0
SECTION
  2
HEADER
  9
$ACADVER
  1
AC1015
  9
$ACADMAINTVER
 70
     6
  9
$DWGCODEPAGE
  3
ANSI_1250
  9
$INSBASE
 10
0.0
 20
0.0
 30
0.0
  9
$EXTMIN
 10
1.5
 20
0.0
 30
0.0
  9
$EXTMAX
 10
100.5
 20
34.0
 30
0.0
  9
$LIMMIN
 10
0.0
 20
0.0
  9
$LIMMAX
 10
420.0
 20
297.0
  9
$ORTHOMODE
 70
     0
  9
$REGENMODE
 70
     1
  9
$FILLMODE
 70
     1
  9
$QTEXTMODE
 70
     0
  9
$MIRRTEXT
 70
     1
  9
$LTSCALE
 40
1.0
  9
$ATTMODE
 70
     1
  9
$TEXTSIZE
 40
6.35
  9
$TRACEWID
 40
1.0
  9
$TEXTSTYLE
  7
Standard
  9
$CLAYER
  8
0
  9
$CELTYPE
  6
ByLayer
  9
$CECOLOR
 62
   256
  9
$CELTSCALE
 40
1.0
  9
$DISPSILH
 70
     0
  9
$DIMSCALE
 40
1.0
  9
$DIMASZ
 40
5.9944
  9
$DIMEXO
 40
0.0
  9
$DIMDLI
 40
3.75
  9
$DIMRND
 40
0.0
  9
$DIMDLE
 40
0.0
  9
$DIMEXE
 40
0.9906
  9
$DIMTP
 40
0.0
  9
$DIMTM
 40
0.0
  9
$DIMTXT
 40
6.35
  9
$DIMCEN
 40
2.5
  9
$DIMTSZ
 40
0.0
  9
$DIMTOL
 70
     0
  9
$DIMLIM
 70
     0
  9
$DIMTIH
 70
     1
  9
$DIMTOH
 70
     1
  9
$DIMSE1
 70
     0
  9
$DIMSE2
 70
     0
  9
$DIMTAD
 70
     1
  9
$DIMZIN
 70
     0
  9
$DIMBLK
  1

  9
$DIMASO
 70
     1
  9
$DIMSHO
 70
     1
  9
$DIMPOST
  1

  9
$DIMAPOST
  1

  9
$DIMALT
 70
     0
  9
$DIMALTD
 70
     3
  9
$DIMALTF
 40
0.0393700787
  9
$DIMLFAC
 40
1.0
  9
$DIMTOFL
 70
     1
  9
$DIMTVP
 40
0.0
  9
$DIMTIX
 70
     0
  9
$DIMSOXD
 70
     0
  9
$DIMSAH
 70
     0
  9
$DIMBLK1
  1

  9
$DIMBLK2
  1

  9
$DIMSTYLE
  2
ISO-25
  9
$DIMCLRD
 70
     0
  9
$DIMCLRE
 70
     0
  9
$DIMCLRT
 70
     0
  9
$DIMTFAC
 40
1.0
  9
$DIMGAP
 40
1.524
  9
$DIMJUST
 70
     0
  9
$DIMSD1
 70
     0
  9
$DIMSD2
 70
     0
  9
$DIMTOLJ
 70
     0
  9
$DIMTZIN
 70
     0
  9
$DIMALTZ
 70
     0
  9
$DIMALTTZ
 70
     0
  9
$DIMUPT
 70
     0
  9
$DIMDEC
 70
     2
  9
$DIMTDEC
 70
     2
  9
$DIMALTU
 70
     2
  9
$DIMALTTD
 70
     3
  9
$DIMTXSTY
  7
Standard
  9
$DIMAUNIT
 70
     0
  9
$DIMADEC
 70
     2
  9
$DIMALTRND
 40
0.0
  9
$DIMAZIN
 70
     0
  9
$DIMDSEP
 70
    44
  9
$DIMATFIT
 70
     3
  9
$DIMFRAC
 70
     0
  9
$DIMLDRBLK
  1

  9
$DIMLUNIT
 70
     2
  9
$DIMLWD
 70
    -2
  9
$DIMLWE
 70
    -2
  9
$DIMTMOVE
 70
     0
  9
$LUNITS
 70
     2
  9
$LUPREC
 70
     2
  9
$SKETCHINC
 40
1.0
  9
$FILLETRAD
 40
0.0
  9
$AUNITS
 70
     0
  9
$AUPREC
 70
     2
  9
$MENU
  1
.
  9
$ELEVATION
 40
0.0
  9
$PELEVATION
 40
0.0
  9
$THICKNESS
 40
0.0
  9
$LIMCHECK
 70
     0
  9
$CHAMFERA
 40
0.0
  9
$CHAMFERB
 40
0.0
  9
$CHAMFERC
 40
0.0
  9
$CHAMFERD
 40
0.0
  9
$SKPOLY
 70
     0
  9
$TDCREATE
 40
2461111.384085116
  9
$TDUCREATE
 40
2461111.342418449
  9
$TDUPDATE
 40
2461111.384228472
  9
$TDUUPDATE
 40
2461111.342561806
  9
$TDINDWG
 40
0.0000000116
  9
$TDUSRTIMER
 40
0.0000000116
  9
$USRTIMER
 70
     1
  9
$ANGBASE
 50
0.0
  9
$ANGDIR
 70
     0
  9
$PDMODE
 70
     0
  9
$PDSIZE
 40
-1.0
  9
$PLINEWID
 40
0.0
  9
$SPLFRAME
 70
     0
  9
$SPLINETYPE
 70
     6
  9
$SPLINESEGS
 70
     8
  9
$HANDSEED
  5
12F
  9
$SURFTAB1
 70
     6
  9
$SURFTAB2
 70
     6
  9
$SURFTYPE
 70
     6
  9
$SURFU
 70
     6
  9
$SURFV
 70
     6
  9
$UCSBASE
  2

  9
$UCSNAME
  2

  9
$UCSORG
 10
0.0
 20
0.0
 30
0.0
  9
$UCSXDIR
 10
1.0
 20
0.0
 30
0.0
  9
$UCSYDIR
 10
0.0
 20
1.0
 30
0.0
  9
$UCSORTHOREF
  2

  9
$UCSORTHOVIEW
 70
     0
  9
$UCSORGTOP
 10
0.0
 20
0.0
 30
0.0
  9
$UCSORGBOTTOM
 10
0.0
 20
0.0
 30
0.0
  9
$UCSORGLEFT
 10
0.0
 20
0.0
 30
0.0
  9
$UCSORGRIGHT
 10
0.0
 20
0.0
 30
0.0
  9
$UCSORGFRONT
 10
0.0
 20
0.0
 30
0.0
  9
$UCSORGBACK
 10
0.0
 20
0.0
 30
0.0
  9
$PUCSBASE
  2

  9
$PUCSNAME
  2

  9
$PUCSORG
 10
0.0
 20
0.0
 30
0.0
  9
$PUCSXDIR
 10
1.0
 20
0.0
 30
0.0
  9
$PUCSYDIR
 10
0.0
 20
1.0
 30
0.0
  9
$PUCSORTHOREF
  2

  9
$PUCSORTHOVIEW
 70
     0
  9
$PUCSORGTOP
 10
0.0
 20
0.0
 30
0.0
  9
$PUCSORGBOTTOM
 10
0.0
 20
0.0
 30
0.0
  9
$PUCSORGLEFT
 10
0.0
 20
0.0
 30
0.0
  9
$PUCSORGRIGHT
 10
0.0
 20
0.0
 30
0.0
  9
$PUCSORGFRONT
 10
0.0
 20
0.0
 30
0.0
  9
$PUCSORGBACK
 10
0.0
 20
0.0
 30
0.0
  9
$USERI1
 70
     0
  9
$USERI2
 70
     0
  9
$USERI3
 70
     0
  9
$USERI4
 70
     0
  9
$USERI5
 70
     0
  9
$USERR1
 40
0.0
  9
$USERR2
 40
0.0
  9
$USERR3
 40
0.0
  9
$USERR4
 40
0.0
  9
$USERR5
 40
0.0
  9
$WORLDVIEW
 70
     1
  9
$SHADEDGE
 70
     3
  9
$SHADEDIF
 70
    70
  9
$TILEMODE
 70
     1
  9
$MAXACTVP
 70
    64
  9
$PINSBASE
 10
0.0
 20
0.0
 30
0.0
  9
$PLIMCHECK
 70
     0
  9
$PEXTMIN
 10
1.0000000000E+20
 20
1.0000000000E+20
 30
1.0000000000E+20
  9
$PEXTMAX
 10
-1.0000000000E+20
 20
-1.0000000000E+20
 30
-1.0000000000E+20
  9
$PLIMMIN
 10
0.0
 20
0.0
  9
$PLIMMAX
 10
420.0
 20
297.0
  9
$UNITMODE
 70
     0
  9
$VISRETAIN
 70
     1
  9
$PLINEGEN
 70
     0
  9
$PSLTSCALE
 70
     1
  9
$TREEDEPTH
 70
  3020
  9
$CMLSTYLE
  2
Standard
  9
$CMLJUST
 70
     0
  9
$CMLSCALE
 40
20.0
  9
$PROXYGRAPHICS
 70
     1
  9
$MEASUREMENT
 70
     1
  9
$CELWEIGHT
370
    -1
  9
$ENDCAPS
280
     0
  9
$JOINSTYLE
280
     0
  9
$LWDISPLAY
290
     1
  9
$INSUNITS
 70
     4
  9
$HYPERLINKBASE
  1

  9
$STYLESHEET
  1

  9
$XEDIT
290
     1
  9
$CEPSNTYPE
380
     0
  9
$PSTYLEMODE
290
     1
  9
$FINGERPRINTGUID
  2
{00bcae79-9af6-40d3-9afd-3e533f5b6976}
  9
$VERSIONGUID
  2
{FAEB1C32-E019-11D5-929B-00C0DF256EC4}
  9
$EXTNAMES
290
     1
  9
$PSVPSCALE
 40
0.0
  9
$OLESTARTUP
290
     0
  0
ENDSEC
  0
SECTION
  2
CLASSES
  0
CLASS
  1
ACDBDICTIONARYWDFLT
  2
AcDbDictionaryWithDefault
  3
ObjectDBX Classes
 90
        0
280
     0
281
     0
  0
CLASS
  1
VISUALSTYLE
  2
AcDbVisualStyle
  3
ObjectDBX Classes
 90
     4095
280
     0
281
     0
  0
CLASS
  1
MATERIAL
  2
AcDbMaterial
  3
ObjectDBX Classes
 90
     1153
280
     0
281
     0
  0
CLASS
  1
SCALE
  2
AcDbScale
  3
ObjectDBX Classes
 90
     1153
280
     0
281
     0
  0
CLASS
  1
TABLESTYLE
  2
AcDbTableStyle
  3
ObjectDBX Classes
 90
     4095
280
     0
281
     0
  0
CLASS
  1
MLEADERSTYLE
  2
AcDbMLeaderStyle
  3
ACDB_MLEADERSTYLE_CLASS
 90
     4095
280
     0
281
     0
  0
CLASS
  1
SUN
  2
AcDbSun
  3
SCENEOE
 90
     1153
280
     0
281
     0
  0
CLASS
  1
ACDBPLACEHOLDER
  2
AcDbPlaceHolder
  3
ObjectDBX Classes
 90
        0
280
     0
281
     0
  0
CLASS
  1
LAYOUT
  2
AcDbLayout
  3
ObjectDBX Classes
 90
        0
280
     0
281
     0
  0
ENDSEC
  0
SECTION
  2
TABLES
  0
TABLE
  2
VPORT
  5
8
330
0
100
AcDbSymbolTable
 70
     1
  0
VPORT
  5
29
330
8
100
AcDbSymbolTableRecord
100
AcDbViewportTableRecord
  2
*Active
 70
     0
 10
0.0
 20
0.0
 11
1.0
 21
1.0
 12
51.0
 22
17.0
 13
0.0
 23
0.0
 14
10.0
 24
10.0
 15
10.0
 25
10.0
 16
0.0
 26
0.0
 36
1.0
 17
0.0
 27
0.0
 37
0.0
 40
34.68
 41
2.9117647059
 42
50.0
 43
0.0
 44
0.0
 50
0.0
 51
0.0
 71
     0
 72
   100
 73
     1
 74
     3
 75
     0
 76
     0
 77
     0
 78
     0
281
     0
 65
     1
110
0.0
120
0.0
130
0.0
111
1.0
121
0.0
131
0.0
112
0.0
122
1.0
132
0.0
 79
     0
146
0.0
  0
ENDTAB
  0
TABLE
  2
LTYPE
  5
5
330
0
100
AcDbSymbolTable
 70
     6
  0
LTYPE
  5
14
330
5
100
AcDbSymbolTableRecord
100
AcDbLinetypeTableRecord
  2
ByBlock
 70
     0
  3

 72
    65
 73
     0
 40
0.0
  0
LTYPE
  5
15
330
5
100
AcDbSymbolTableRecord
100
AcDbLinetypeTableRecord
  2
ByLayer
 70
     0
  3

 72
    65
 73
     0
 40
0.0
  0
LTYPE
  5
16
330
5
100
AcDbSymbolTableRecord
100
AcDbLinetypeTableRecord
  2
Continuous
 70
     0
  3
Solid line
 72
    65
 73
     0
 40
0.0
  0
LTYPE
  5
5E
330
5
100
AcDbSymbolTableRecord
100
AcDbLinetypeTableRecord
  2
HIDDEN
 70
     0
  3
Hidden __ __ __ __ __ __ __ __ __ __ __ __ __ __
 72
    65
 73
     2
 40
1.905
 49
1.27
 74
     0
 49
-0.635
 74
     0
  0
LTYPE
  5
5F
330
5
100
AcDbSymbolTableRecord
100
AcDbLinetypeTableRecord
  2
PHANTOM
 70
     0
  3
Phantom ______  __  __  ______  __  __  ______
 72
    65
 73
     6
 40
12.7
 49
6.35
 74
     0
 49
-1.27
 74
     0
 49
1.27
 74
     0
 49
-1.27
 74
     0
 49
1.27
 74
     0
 49
-1.27
 74
     0
  0
LTYPE
  5
60
330
5
100
AcDbSymbolTableRecord
100
AcDbLinetypeTableRecord
  2
CENTER
 70
     0
  3
Center ____ _ ____ _ ____ _ ____ _ ____ _ ____
 72
    65
 73
     4
 40
10.16
 49
6.35
 74
     0
 49
-1.27
 74
     0
 49
1.27
 74
     0
 49
-1.27
 74
     0
  0
LTYPE
  5
61
330
5
100
AcDbSymbolTableRecord
100
AcDbLinetypeTableRecord
  2
CENTERX2
 70
     0
  3
Center (2x) ________  __  ________  __  _____
 72
    65
 73
     4
 40
20.32
 49
12.7
 74
     0
 49
-2.54
 74
     0
 49
2.54
 74
     0
 49
-2.54
 74
     0
  0
LTYPE
  5
62
330
5
100
AcDbSymbolTableRecord
100
AcDbLinetypeTableRecord
  2
DOT2
 70
     0
  3
Dot (.5x) ........................................
 72
    65
 73
     2
 40
0.635
 49
0.0
 74
     0
 49
-0.635
 74
     0
  0
ENDTAB
  0
TABLE
  2
LAYER
  5
2
330
0
100
AcDbSymbolTable
 70
     1
  0
LAYER
  5
10
330
2
100
AcDbSymbolTableRecord
100
AcDbLayerTableRecord
  2
0
 70
     0
 62
     7
  6
Continuous
370
    -3
390
F
  0
ENDTAB
  0
TABLE
  2
STYLE
  5
3
330
0
100
AcDbSymbolTable
 70
     1
  0
STYLE
  5
11
330
3
100
AcDbSymbolTableRecord
100
AcDbTextStyleTableRecord
  2
Standard
 70
     0
 40
0.0
 41
1.0
 50
0.0
 71
     0
 42
6.35
  3
txt
  4

  0
ENDTAB
  0
TABLE
  2
VIEW
  5
6
330
0
100
AcDbSymbolTable
 70
     0
  0
ENDTAB
  0
TABLE
  2
UCS
  5
7
330
0
100
AcDbSymbolTable
 70
     0
  0
ENDTAB
  0
TABLE
  2
APPID
  5
9
330
0
100
AcDbSymbolTable
 70
     1
  0
APPID
  5
12
330
9
100
AcDbSymbolTableRecord
100
AcDbRegAppTableRecord
  2
ACAD
 70
     0
  0
ENDTAB
  0
TABLE
  2
DIMSTYLE
  5
A
330
0
100
AcDbSymbolTable
 70
     1
100
AcDbDimStyleTable
  0
DIMSTYLE
105
27
330
A
100
AcDbSymbolTableRecord
100
AcDbDimStyleTableRecord
  2
ISO-25
 70
     0
 41
2.5
 42
0.625
 43
3.75
 44
1.25
 73
     0
 74
     0
 77
     1
 78
     8
140
2.5
141
2.5
143
0.0393700787
147
0.625
171
     3
172
     1
178
     0
271
     2
272
     2
274
     3
278
    44
283
     0
284
     8
340
11
  0
ENDTAB
  0
TABLE
  2
BLOCK_RECORD
  5
1
330
0
100
AcDbSymbolTable
 70
     1
  0
BLOCK_RECORD
  5
1F
330
1
100
AcDbSymbolTableRecord
100
AcDbBlockTableRecord
  2
*Model_Space
340
22
  0
BLOCK_RECORD
  5
1B
330
1
100
AcDbSymbolTableRecord
100
AcDbBlockTableRecord
  2
*Paper_Space
340
1E
  0
BLOCK_RECORD
  5
23
330
1
100
AcDbSymbolTableRecord
100
AcDbBlockTableRecord
  2
*Paper_Space0
340
26
  0
ENDTAB
  0
ENDSEC
  0
SECTION
  2
BLOCKS
  0
BLOCK
  5
20
330
1F
100
AcDbEntity
  8
0
100
AcDbBlockBegin
  2
*Model_Space
 70
     0
 10
0.0
 20
0.0
 30
0.0
  3
*Model_Space
  1

  0
ENDBLK
  5
21
330
1F
100
AcDbEntity
  8
0
100
AcDbBlockEnd
  0
BLOCK
  5
1C
330
1B
100
AcDbEntity
 67
     1
  8
0
100
AcDbBlockBegin
  2
*Paper_Space
 70
     0
 10
0.0
 20
0.0
 30
0.0
  3
*Paper_Space
  1

  0
ENDBLK
  5
1D
330
1B
100
AcDbEntity
 67
     1
  8
0
100
AcDbBlockEnd
  0
BLOCK
  5
24
330
23
100
AcDbEntity
  8
0
100
AcDbBlockBegin
  2
*Paper_Space0
 70
     0
 10
0.0
 20
0.0
 30
0.0
  3
*Paper_Space0
  1

  0
ENDBLK
  5
25
330
23
100
AcDbEntity
  8
0
100
AcDbBlockEnd
  0
ENDSEC
  0
SECTION
  2
ENTITIES
  0
CIRCLE
  5
63
330
1F
100
AcDbEntity
  8
0
  6
Continuous
 62
     7
100
AcDbCircle
 10
78.85
 20
17.0
 30
0.0
 40
0.2499999999999926
  0
CIRCLE
  5
64
330
1F
100
AcDbEntity
  8
0
  6
Continuous
 62
     7
100
AcDbCircle
 10
13.0
 20
7.0
 30
0.0
 40
2.499999999999997
  0
CIRCLE
  5
65
330
1F
100
AcDbEntity
  8
0
  6
Continuous
 62
     7
100
AcDbCircle
 10
4.0
 20
7.0
 30
0.0
 40
2.500000000000001
  0
CIRCLE
  5
66
330
1F
100
AcDbEntity
  8
0
  6
Continuous
 62
     7
100
AcDbCircle
 10
4.0
 20
29.0
 30
0.0
 40
2.5
  0
CIRCLE
  5
67
330
1F
100
AcDbEntity
  8
0
  6
Continuous
 62
     7
100
AcDbCircle
 10
98.0
 20
7.0
 30
0.0
 40
2.499999999999991
  0
CIRCLE
  5
68
330
1F
100
AcDbEntity
  8
0
  6
Continuous
 62
     7
100
AcDbCircle
 10
89.0
 20
7.0
 30
0.0
 40
2.499999999999991
  0
CIRCLE
  5
69
330
1F
100
AcDbEntity
  8
0
  6
Continuous
 62
     7
100
AcDbCircle
 10
89.0
 20
29.0
 30
0.0
 40
2.500000000000008
  0
CIRCLE
  5
6A
330
1F
100
AcDbEntity
  8
0
  6
Continuous
 62
     7
100
AcDbCircle
 10
13.0
 20
29.0
 30
0.0
 40
2.499999999999997
  0
CIRCLE
  5
6B
330
1F
100
AcDbEntity
  8
0
  6
Continuous
 62
     7
100
AcDbCircle
 10
98.0
 20
29.0
 30
0.0
 40
2.500000000000007
  0
CIRCLE
  5
6C
330
1F
100
AcDbEntity
  8
0
  6
Continuous
 62
     7
100
AcDbCircle
 10
21.0
 20
29.0
 30
0.0
 40
2.500000000000003
  0
CIRCLE
  5
6D
330
1F
100
AcDbEntity
  8
0
  6
Continuous
 62
     7
100
AcDbCircle
 10
10.85
 20
17.0
 30
0.0
 40
0.2499999999999994
  0
CIRCLE
  5
6E
330
1F
100
AcDbEntity
  8
0
  6
Continuous
 62
     7
100
AcDbCircle
 10
95.85
 20
17.0
 30
0.0
 40
0.249999999999978
  0
CIRCLE
  5
6F
330
1F
100
AcDbEntity
  8
0
  6
Continuous
 62
     7
100
AcDbCircle
 10
30.0
 20
29.0
 30
0.0
 40
2.5
  0
CIRCLE
  5
70
330
1F
100
AcDbEntity
  8
0
  6
Continuous
 62
     7
100
AcDbCircle
 10
30.0
 20
7.0
 30
0.0
 40
2.499999999999988
  0
CIRCLE
  5
71
330
1F
100
AcDbEntity
  8
0
  6
Continuous
 62
     7
100
AcDbCircle
 10
21.0
 20
7.0
 30
0.0
 40
2.500000000000003
  0
CIRCLE
  5
72
330
1F
100
AcDbEntity
  8
0
  6
Continuous
 62
     7
100
AcDbCircle
 10
27.85
 20
17.0
 30
0.0
 40
0.2500000000000028
  0
CIRCLE
  5
73
330
1F
100
AcDbEntity
  8
0
  6
Continuous
 62
     7
100
AcDbCircle
 10
38.0
 20
7.0
 30
0.0
 40
2.499999999999999
  0
CIRCLE
  5
74
330
1F
100
AcDbEntity
  8
0
  6
Continuous
 62
     7
100
AcDbCircle
 10
38.0
 20
29.0
 30
0.0
 40
2.5
  0
CIRCLE
  5
75
330
1F
100
AcDbEntity
  8
0
  6
Continuous
 62
     7
100
AcDbCircle
 10
47.0
 20
29.0
 30
0.0
 40
2.499999999999992
  0
CIRCLE
  5
76
330
1F
100
AcDbEntity
  8
0
  6
Continuous
 62
     7
100
AcDbCircle
 10
47.0
 20
7.0
 30
0.0
 40
2.499999999999992
  0
CIRCLE
  5
77
330
1F
100
AcDbEntity
  8
0
  6
Continuous
 62
     7
100
AcDbCircle
 10
44.85
 20
17.0
 30
0.0
 40
0.2499999999999994
  0
CIRCLE
  5
78
330
1F
100
AcDbEntity
  8
0
  6
Continuous
 62
     7
100
AcDbCircle
 10
64.0
 20
29.0
 30
0.0
 40
2.499999999999991
  0
CIRCLE
  5
79
330
1F
100
AcDbEntity
  8
0
  6
Continuous
 62
     7
100
AcDbCircle
 10
64.0
 20
7.0
 30
0.0
 40
2.499999999999991
  0
CIRCLE
  5
7A
330
1F
100
AcDbEntity
  8
0
  6
Continuous
 62
     7
100
AcDbCircle
 10
55.0
 20
7.0
 30
0.0
 40
2.499999999999992
  0
CIRCLE
  5
7B
330
1F
100
AcDbEntity
  8
0
  6
Continuous
 62
     7
100
AcDbCircle
 10
55.0
 20
29.0
 30
0.0
 40
2.499999999999992
  0
CIRCLE
  5
7C
330
1F
100
AcDbEntity
  8
0
  6
Continuous
 62
     7
100
AcDbCircle
 10
61.85
 20
17.0
 30
0.0
 40
0.2499999999999994
  0
CIRCLE
  5
7D
330
1F
100
AcDbEntity
  8
0
  6
Continuous
 62
     7
100
AcDbCircle
 10
81.0
 20
29.0
 30
0.0
 40
2.499999999999991
  0
CIRCLE
  5
7E
330
1F
100
AcDbEntity
  8
0
  6
Continuous
 62
     7
100
AcDbCircle
 10
81.0
 20
7.0
 30
0.0
 40
2.499999999999991
  0
CIRCLE
  5
7F
330
1F
100
AcDbEntity
  8
0
  6
Continuous
 62
     7
100
AcDbCircle
 10
72.0
 20
7.0
 30
0.0
 40
2.499999999999991
  0
CIRCLE
  5
80
330
1F
100
AcDbEntity
  8
0
  6
Continuous
 62
     7
100
AcDbCircle
 10
72.0
 20
29.0
 30
0.0
 40
2.499999999999991
  0
LINE
  5
81
330
1F
100
AcDbEntity
  8
0
  6
Continuous
 62
     7
100
AcDbLine
 10
70.75
 20
13.5
 30
0.0
 11
73.25
 21
13.5
 31
0.0
  0
LINE
  5
82
330
1F
100
AcDbEntity
  8
0
  6
Continuous
 62
     7
100
AcDbLine
 10
73.25
 20
13.5
 30
0.0
 11
73.25
 21
20.5
 31
0.0
  0
LINE
  5
83
330
1F
100
AcDbEntity
  8
0
  6
Continuous
 62
     7
100
AcDbLine
 10
73.25
 20
20.5
 30
0.0
 11
70.75
 21
20.5
 31
0.0
  0
LINE
  5
84
330
1F
100
AcDbEntity
  8
0
  6
Continuous
 62
     7
100
AcDbLine
 10
70.75
 20
20.5
 30
0.0
 11
70.75
 21
13.5
 31
0.0
  0
LINE
  5
85
330
1F
100
AcDbEntity
  8
0
  6
Continuous
 62
     7
100
AcDbLine
 10
2.75
 20
13.5
 30
0.0
 11
5.25
 21
13.5
 31
0.0
  0
LINE
  5
86
330
1F
100
AcDbEntity
  8
0
  6
Continuous
 62
     7
100
AcDbLine
 10
5.25
 20
13.5
 30
0.0
 11
5.25
 21
20.5
 31
0.0
  0
LINE
  5
87
330
1F
100
AcDbEntity
  8
0
  6
Continuous
 62
     7
100
AcDbLine
 10
5.25
 20
20.5
 30
0.0
 11
2.75
 21
20.5
 31
0.0
  0
LINE
  5
88
330
1F
100
AcDbEntity
  8
0
  6
Continuous
 62
     7
100
AcDbLine
 10
2.75
 20
20.5
 30
0.0
 11
2.75
 21
13.5
 31
0.0
  0
LINE
  5
89
330
1F
100
AcDbEntity
  8
0
  6
Continuous
 62
     7
100
AcDbLine
 10
87.75
 20
13.5
 30
0.0
 11
90.25
 21
13.5
 31
0.0
  0
LINE
  5
8A
330
1F
100
AcDbEntity
  8
0
  6
Continuous
 62
     7
100
AcDbLine
 10
90.25
 20
13.5
 30
0.0
 11
90.25
 21
20.5
 31
0.0
  0
LINE
  5
8B
330
1F
100
AcDbEntity
  8
0
  6
Continuous
 62
     7
100
AcDbLine
 10
90.25
 20
20.5
 30
0.0
 11
87.75
 21
20.5
 31
0.0
  0
LINE
  5
8C
330
1F
100
AcDbEntity
  8
0
  6
Continuous
 62
     7
100
AcDbLine
 10
87.75
 20
20.5
 30
0.0
 11
87.75
 21
13.5
 31
0.0
  0
LINE
  5
8D
330
1F
100
AcDbEntity
  8
0
  6
Continuous
 62
     7
100
AcDbLine
 10
19.75
 20
13.5
 30
0.0
 11
22.25
 21
13.5
 31
0.0
  0
LINE
  5
8E
330
1F
100
AcDbEntity
  8
0
  6
Continuous
 62
     7
100
AcDbLine
 10
22.25
 20
13.5
 30
0.0
 11
22.25
 21
20.5
 31
0.0
  0
LINE
  5
8F
330
1F
100
AcDbEntity
  8
0
  6
Continuous
 62
     7
100
AcDbLine
 10
22.25
 20
20.5
 30
0.0
 11
19.75
 21
20.5
 31
0.0
  0
LINE
  5
90
330
1F
100
AcDbEntity
  8
0
  6
Continuous
 62
     7
100
AcDbLine
 10
19.75
 20
20.5
 30
0.0
 11
19.75
 21
13.5
 31
0.0
  0
LINE
  5
91
330
1F
100
AcDbEntity
  8
0
  6
Continuous
 62
     7
100
AcDbLine
 10
36.75
 20
13.5
 30
0.0
 11
39.25
 21
13.5
 31
0.0
  0
LINE
  5
92
330
1F
100
AcDbEntity
  8
0
  6
Continuous
 62
     7
100
AcDbLine
 10
39.25
 20
13.5
 30
0.0
 11
39.25
 21
20.5
 31
0.0
  0
LINE
  5
93
330
1F
100
AcDbEntity
  8
0
  6
Continuous
 62
     7
100
AcDbLine
 10
39.25
 20
20.5
 30
0.0
 11
36.75
 21
20.5
 31
0.0
  0
LINE
  5
94
330
1F
100
AcDbEntity
  8
0
  6
Continuous
 62
     7
100
AcDbLine
 10
36.75
 20
20.5
 30
0.0
 11
36.75
 21
13.5
 31
0.0
  0
LINE
  5
95
330
1F
100
AcDbEntity
  8
0
  6
Continuous
 62
     7
100
AcDbLine
 10
53.75
 20
13.5
 30
0.0
 11
56.25
 21
13.5
 31
0.0
  0
LINE
  5
96
330
1F
100
AcDbEntity
  8
0
  6
Continuous
 62
     7
100
AcDbLine
 10
53.75
 20
20.5
 30
0.0
 11
53.75
 21
13.5
 31
0.0
  0
LINE
  5
97
330
1F
100
AcDbEntity
  8
0
  6
Continuous
 62
     7
100
AcDbLine
 10
56.25
 20
20.5
 30
0.0
 11
53.75
 21
20.5
 31
0.0
  0
LINE
  5
98
330
1F
100
AcDbEntity
  8
0
  6
Continuous
 62
     7
100
AcDbLine
 10
56.25
 20
13.5
 30
0.0
 11
56.25
 21
20.5
 31
0.0
  0
LINE
  5
99
330
1F
100
AcDbEntity
  8
0
  6
Continuous
 62
     7
100
AcDbLine
 10
70.75
 20
15.25
 30
0.0
 11
73.25
 21
15.25
 31
0.0
  0
LINE
  5
9A
330
1F
100
AcDbEntity
  8
0
  6
Continuous
 62
     7
100
AcDbLine
 10
72.0
 20
13.5
 30
0.0
 11
72.0
 21
9.5
 31
0.0
  0
LINE
  5
9B
330
1F
100
AcDbEntity
  8
0
  6
Continuous
 62
     7
100
AcDbLine
 10
72.0
 20
26.5
 30
0.0
 11
72.0
 21
20.5
 31
0.0
  0
LINE
  5
9C
330
1F
100
AcDbEntity
  8
0
  6
Continuous
 62
     7
100
AcDbLine
 10
81.0
 20
26.5
 30
0.0
 11
81.0
 21
19.15
 31
0.0
  0
LINE
  5
9D
330
1F
100
AcDbEntity
  8
0
  6
Continuous
 62
     7
100
AcDbLine
 10
81.0
 20
19.15
 30
0.0
 11
78.85
 21
17.0
 31
0.0
  0
LINE
  5
9E
330
1F
100
AcDbEntity
  8
0
  6
Continuous
 62
     7
100
AcDbLine
 10
78.85
 20
17.0
 30
0.0
 11
81.0
 21
14.85
 31
0.0
  0
LINE
  5
9F
330
1F
100
AcDbEntity
  8
0
  6
Continuous
 62
     7
100
AcDbLine
 10
81.0
 20
14.85
 30
0.0
 11
81.0
 21
9.5
 31
0.0
  0
LINE
  5
A0
330
1F
100
AcDbEntity
  8
0
  6
Continuous
 62
     7
100
AcDbLine
 10
70.75
 20
18.75
 30
0.0
 11
73.25
 21
18.75
 31
0.0
  0
LINE
  5
A1
330
1F
100
AcDbEntity
  8
0
  6
Continuous
 62
     7
100
AcDbLine
 10
70.75
 20
17.0
 30
0.0
 11
73.25
 21
17.0
 31
0.0
  0
LINE
  5
A2
330
1F
100
AcDbEntity
  8
0
  6
Continuous
 62
     7
100
AcDbLine
 10
85.0
 20
34.0
 30
0.0
 11
85.0
 21
0.0
 31
0.0
  0
LINE
  5
A3
330
1F
100
AcDbEntity
  8
0
  6
Continuous
 62
     7
100
AcDbLine
 10
68.0
 20
34.0
 30
0.0
 11
68.0
 21
0.0
 31
0.0
  0
LINE
  5
A4
330
1F
100
AcDbEntity
  8
0
  6
Continuous
 62
     7
100
AcDbLine
 10
51.0
 20
34.0
 30
0.0
 11
51.0
 21
0.0
 31
0.0
  0
LINE
  5
A5
330
1F
100
AcDbEntity
  8
0
  6
Continuous
 62
     7
100
AcDbLine
 10
34.0
 20
34.0
 30
0.0
 11
34.0
 21
0.0
 31
0.0
  0
LINE
  5
A6
330
1F
100
AcDbEntity
  8
0
  6
Continuous
 62
     7
100
AcDbLine
 10
17.0
 20
34.0
 30
0.0
 11
17.0
 21
0.0
 31
0.0
  0
LINE
  5
A7
330
1F
100
AcDbEntity
  8
0
  6
Continuous
 62
     7
100
AcDbLine
 10
4.0
 20
26.5
 30
0.0
 11
4.0
 21
20.5
 31
0.0
  0
LINE
  5
A8
330
1F
100
AcDbEntity
  8
0
  6
Continuous
 62
     7
100
AcDbLine
 10
89.0
 20
26.5
 30
0.0
 11
89.0
 21
20.5
 31
0.0
  0
LINE
  5
A9
330
1F
100
AcDbEntity
  8
0
  6
Continuous
 62
     7
100
AcDbLine
 10
2.75
 20
18.75
 30
0.0
 11
5.25
 21
18.75
 31
0.0
  0
LINE
  5
AA
330
1F
100
AcDbEntity
  8
0
  6
Continuous
 62
     7
100
AcDbLine
 10
2.75
 20
17.0
 30
0.0
 11
5.25
 21
17.0
 31
0.0
  0
LINE
  5
AB
330
1F
100
AcDbEntity
  8
0
  6
Continuous
 62
     7
100
AcDbLine
 10
2.75
 20
15.25
 30
0.0
 11
5.25
 21
15.25
 31
0.0
  0
LINE
  5
AC
330
1F
100
AcDbEntity
  8
0
  6
Continuous
 62
     7
100
AcDbLine
 10
4.0
 20
13.5
 30
0.0
 11
4.0
 21
9.5
 31
0.0
  0
LINE
  5
AD
330
1F
100
AcDbEntity
  8
0
  6
Continuous
 62
     7
100
AcDbLine
 10
98.0
 20
26.5
 30
0.0
 11
98.0
 21
19.15
 31
0.0
  0
LINE
  5
AE
330
1F
100
AcDbEntity
  8
0
  6
Continuous
 62
     7
100
AcDbLine
 10
98.0
 20
19.15
 30
0.0
 11
95.85
 21
17.0
 31
0.0
  0
LINE
  5
AF
330
1F
100
AcDbEntity
  8
0
  6
Continuous
 62
     7
100
AcDbLine
 10
95.85
 20
17.0
 30
0.0
 11
98.0
 21
14.85
 31
0.0
  0
LINE
  5
B0
330
1F
100
AcDbEntity
  8
0
  6
Continuous
 62
     7
100
AcDbLine
 10
98.0
 20
14.85
 30
0.0
 11
98.0
 21
9.5
 31
0.0
  0
LINE
  5
B1
330
1F
100
AcDbEntity
  8
0
  6
Continuous
 62
     7
100
AcDbLine
 10
87.75
 20
18.75
 30
0.0
 11
90.25
 21
18.75
 31
0.0
  0
LINE
  5
B2
330
1F
100
AcDbEntity
  8
0
  6
Continuous
 62
     7
100
AcDbLine
 10
87.75
 20
17.0
 30
0.0
 11
90.25
 21
17.0
 31
0.0
  0
LINE
  5
B3
330
1F
100
AcDbEntity
  8
0
  6
Continuous
 62
     7
100
AcDbLine
 10
87.75
 20
15.25
 30
0.0
 11
90.25
 21
15.25
 31
0.0
  0
LINE
  5
B4
330
1F
100
AcDbEntity
  8
0
  6
Continuous
 62
     7
100
AcDbLine
 10
89.0
 20
13.5
 30
0.0
 11
89.0
 21
9.5
 31
0.0
  0
LINE
  5
B5
330
1F
100
AcDbEntity
  8
0
  6
Continuous
 62
     7
100
AcDbLine
 10
13.0
 20
26.5
 30
0.0
 11
13.0
 21
19.15
 31
0.0
  0
LINE
  5
B6
330
1F
100
AcDbEntity
  8
0
  6
Continuous
 62
     7
100
AcDbLine
 10
13.0
 20
19.15
 30
0.0
 11
10.85
 21
17.0
 31
0.0
  0
LINE
  5
B7
330
1F
100
AcDbEntity
  8
0
  6
Continuous
 62
     7
100
AcDbLine
 10
10.85
 20
17.0
 30
0.0
 11
13.0
 21
14.85
 31
0.0
  0
LINE
  5
B8
330
1F
100
AcDbEntity
  8
0
  6
Continuous
 62
     7
100
AcDbLine
 10
13.0
 20
14.85
 30
0.0
 11
13.0
 21
9.5
 31
0.0
  0
LINE
  5
B9
330
1F
100
AcDbEntity
  8
0
  6
Continuous
 62
     7
100
AcDbLine
 10
21.0
 20
13.5
 30
0.0
 11
21.0
 21
9.5
 31
0.0
  0
LINE
  5
BA
330
1F
100
AcDbEntity
  8
0
  6
Continuous
 62
     7
100
AcDbLine
 10
21.0
 20
26.5
 30
0.0
 11
21.0
 21
20.5
 31
0.0
  0
LINE
  5
BB
330
1F
100
AcDbEntity
  8
0
  6
Continuous
 62
     7
100
AcDbLine
 10
30.0
 20
26.5
 30
0.0
 11
30.0
 21
19.15
 31
0.0
  0
LINE
  5
BC
330
1F
100
AcDbEntity
  8
0
  6
Continuous
 62
     7
100
AcDbLine
 10
30.0
 20
19.15
 30
0.0
 11
27.85
 21
17.0
 31
0.0
  0
LINE
  5
BD
330
1F
100
AcDbEntity
  8
0
  6
Continuous
 62
     7
100
AcDbLine
 10
27.85
 20
17.0
 30
0.0
 11
30.0
 21
14.85
 31
0.0
  0
LINE
  5
BE
330
1F
100
AcDbEntity
  8
0
  6
Continuous
 62
     7
100
AcDbLine
 10
30.0
 20
14.85
 30
0.0
 11
30.0
 21
9.5
 31
0.0
  0
LINE
  5
BF
330
1F
100
AcDbEntity
  8
0
  6
Continuous
 62
     7
100
AcDbLine
 10
19.75
 20
18.75
 30
0.0
 11
22.25
 21
18.75
 31
0.0
  0
LINE
  5
C0
330
1F
100
AcDbEntity
  8
0
  6
Continuous
 62
     7
100
AcDbLine
 10
19.75
 20
17.0
 30
0.0
 11
22.25
 21
17.0
 31
0.0
  0
LINE
  5
C1
330
1F
100
AcDbEntity
  8
0
  6
Continuous
 62
     7
100
AcDbLine
 10
19.75
 20
15.25
 30
0.0
 11
22.25
 21
15.25
 31
0.0
  0
LINE
  5
C2
330
1F
100
AcDbEntity
  8
0
  6
Continuous
 62
     7
100
AcDbLine
 10
38.0
 20
26.5
 30
0.0
 11
38.0
 21
20.5
 31
0.0
  0
LINE
  5
C3
330
1F
100
AcDbEntity
  8
0
  6
Continuous
 62
     7
100
AcDbLine
 10
36.75
 20
18.75
 30
0.0
 11
39.25
 21
18.75
 31
0.0
  0
LINE
  5
C4
330
1F
100
AcDbEntity
  8
0
  6
Continuous
 62
     7
100
AcDbLine
 10
36.75
 20
17.0
 30
0.0
 11
39.25
 21
17.0
 31
0.0
  0
LINE
  5
C5
330
1F
100
AcDbEntity
  8
0
  6
Continuous
 62
     7
100
AcDbLine
 10
36.75
 20
15.25
 30
0.0
 11
39.25
 21
15.25
 31
0.0
  0
LINE
  5
C6
330
1F
100
AcDbEntity
  8
0
  6
Continuous
 62
     7
100
AcDbLine
 10
38.0
 20
13.5
 30
0.0
 11
38.0
 21
9.5
 31
0.0
  0
LINE
  5
C7
330
1F
100
AcDbEntity
  8
0
  6
Continuous
 62
     7
100
AcDbLine
 10
47.0
 20
26.5
 30
0.0
 11
47.0
 21
19.15
 31
0.0
  0
LINE
  5
C8
330
1F
100
AcDbEntity
  8
0
  6
Continuous
 62
     7
100
AcDbLine
 10
47.0
 20
19.15
 30
0.0
 11
44.85
 21
17.0
 31
0.0
  0
LINE
  5
C9
330
1F
100
AcDbEntity
  8
0
  6
Continuous
 62
     7
100
AcDbLine
 10
44.85
 20
17.0
 30
0.0
 11
47.0
 21
14.85
 31
0.0
  0
LINE
  5
CA
330
1F
100
AcDbEntity
  8
0
  6
Continuous
 62
     7
100
AcDbLine
 10
47.0
 20
14.85
 30
0.0
 11
47.0
 21
9.5
 31
0.0
  0
LINE
  5
CB
330
1F
100
AcDbEntity
  8
0
  6
Continuous
 62
     7
100
AcDbLine
 10
55.0
 20
26.5
 30
0.0
 11
55.0
 21
20.5
 31
0.0
  0
LINE
  5
CC
330
1F
100
AcDbEntity
  8
0
  6
Continuous
 62
     7
100
AcDbLine
 10
64.0
 20
26.5
 30
0.0
 11
64.0
 21
19.15
 31
0.0
  0
LINE
  5
CD
330
1F
100
AcDbEntity
  8
0
  6
Continuous
 62
     7
100
AcDbLine
 10
64.0
 20
19.15
 30
0.0
 11
61.85
 21
17.0
 31
0.0
  0
LINE
  5
CE
330
1F
100
AcDbEntity
  8
0
  6
Continuous
 62
     7
100
AcDbLine
 10
61.85
 20
17.0
 30
0.0
 11
64.0
 21
14.85
 31
0.0
  0
LINE
  5
CF
330
1F
100
AcDbEntity
  8
0
  6
Continuous
 62
     7
100
AcDbLine
 10
64.0
 20
14.85
 30
0.0
 11
64.0
 21
9.5
 31
0.0
  0
LINE
  5
D0
330
1F
100
AcDbEntity
  8
0
  6
Continuous
 62
     7
100
AcDbLine
 10
53.75
 20
18.75
 30
0.0
 11
56.25
 21
18.75
 31
0.0
  0
LINE
  5
D1
330
1F
100
AcDbEntity
  8
0
  6
Continuous
 62
     7
100
AcDbLine
 10
53.75
 20
17.0
 30
0.0
 11
56.25
 21
17.0
 31
0.0
  0
LINE
  5
D2
330
1F
100
AcDbEntity
  8
0
  6
Continuous
 62
     7
100
AcDbLine
 10
53.75
 20
15.25
 30
0.0
 11
56.25
 21
15.25
 31
0.0
  0
LINE
  5
D3
330
1F
100
AcDbEntity
  8
0
  6
Continuous
 62
     7
100
AcDbLine
 10
55.0
 20
13.5
 30
0.0
 11
55.0
 21
9.5
 31
0.0
  0
LWPOLYLINE
  5
D4
330
1F
100
AcDbEntity
  8
0
  6
Continuous
 62
     7
100
AcDbPolyline
 90
       12
 70
   128
 43
0.0
 10
3.6659650505
 20
30.2242649178
 10
4.1282051282
 20
30.2242649178
 10
4.1282051282
 20
30.2242649178
 10
4.1282051282
 20
27.7242649178
 10
4.1282051282
 20
27.7242649178
 10
3.9038461538
 20
27.7242649178
 10
3.9038461538
 20
27.7242649178
 10
3.9038461538
 20
29.9678546614
 10
3.9038461538
 20
29.9678546614
 10
3.5192307692
 20
29.9678546614
 10
3.5192307692
 20
29.9678546614
 10
3.6659655449
 20
30.2242649178
  0
LWPOLYLINE
  5
D5
330
1F
100
AcDbEntity
  8
0
  6
Continuous
 62
     7
100
AcDbPolyline
 90
      106
 70
   128
 43
0.0
 10
3.4551266581
 20
7.4550341486
 10
3.2307692308
 20
7.4550341486
 10
3.2307692308
 20
7.4550341486
 10
3.2367788462
 20
7.5441767768
 10
3.2497996795
 20
7.6293129947
 10
3.2693309295
 20
7.7099420011
 10
3.2963741987
 20
7.7870653986
 10
3.3299278846
 20
7.8596815844
 10
3.3704927885
 20
7.9287921614
 10
3.4180689103
 20
7.9933955268
 10
3.47265625
 20
8.0539924819
 10
3.5322516026
 20
8.1090806229
 10
3.5958533654
 20
8.1566567447
 10
3.6624599359
 20
8.1967208473
 10
3.7320713141
 20
8.2297737319
 10
3.8056891026
 20
8.2553145973
 10
3.8823116987
 20
8.2738442447
 10
3.9624399038
 20
8.2848618729
 10
4.0460737179
 20
8.2883674819
 10
4.0460737179
 20
8.2883674819
 10
4.1282051282
 20
8.2848618729
 10
4.2068309295
 20
8.274345046
 10
4.2809495192
 20
8.2573178024
 10
4.3515625
 20
8.2332793409
 10
4.4176682692
 20
8.2017288601
 10
4.4797676282
 20
8.1636679627
 10
4.5383613782
 20
8.1190966486
 10
4.5924479167
 20
8.0670133152
 10
4.6415264423
 20
8.0104227703
 10
4.68359375
 20
7.9513282191
 10
4.7196514423
 20
7.8897296614
 10
4.7491987179
 20
7.8261278986
 10
4.7717347756
 20
7.759521328
 10
4.7882612179
 20
7.6904107511
 10
4.7977764423
 20
7.6192969691
 10
4.8012820513
 20
7.5451783793
 10
4.8012820513
 20
7.5451783793
 10
4.7947716346
 20
7.4410117127
 10
4.7752403846
 20
7.340350655
 10
4.7431891026
 20
7.242694405
 10
4.6976161859
 20
7.1485437639
 10
4.6685697115
 20
7.1004668409
 10
4.6340144231
 20
7.0478827062
 10
4.5929487179
 20
6.9912921614
 10
4.5458733974
 20
6.9311960075
 10
4.4922876603
 20
6.8660918409
 10
4.433193109
 20
6.7974820652
 10
4.367588141
 20
6.7248658793
 10
4.2959735577
 20
6.6477424819
 10
4.2959735577
 20
6.6477424819
 10
3.6704727564
 20
5.9806751742
 10
3.6704727564
 20
5.9806751742
 10
4.8333333333
 20
5.9806751742
 10
4.8333333333
 20
5.9806751742
 10
4.8333333333
 20
5.7242649178
 10
4.8333333333
 20
5.7242649178
 10
3.1346153846
 20
5.7242649178
 10
3.1346153846
 20
5.7242649178
 10
4.1041666667
 20
6.7589203665
 10
4.1041666667
 20
6.7589203665
 10
4.1747796474
 20
6.8330389562
 10
4.2388822115
 20
6.9021495332
 10
4.296474359
 20
6.9662520973
 10
4.3475560897
 20
7.0253466486
 10
4.3921274038
 20
7.0799339883
 10
4.4306891026
 20
7.1290125139
 10
4.4622395833
 20
7.173583828
 10
4.4877804487
 20
7.2131471293
 10
4.5268429487
 20
7.2882673216
 10
4.5548878205
 20
7.3653907191
 10
4.5714142628
 20
7.4440165203
 10
4.5769230769
 20
7.525146328
 10
4.5769230769
 20
7.525146328
 10
4.5744190705
 20
7.5762280588
 10
4.5669070513
 20
7.6253065844
 10
4.5548878205
 20
7.672381905
 10
4.5378605769
 20
7.7179548216
 10
4.5153245192
 20
7.7620253344
 10
4.48828125
 20
7.8035918409
 10
4.4567307692
 20
7.8436559434
 10
4.4196714744
 20
7.8822176421
 10
4.3791065705
 20
7.9172737319
 10
4.3365384615
 20
7.9478226101
 10
4.2919671474
 20
7.9733634755
 10
4.2448918269
 20
7.9943971293
 10
4.1953125
 20
8.0109235716
 10
4.1442307692
 20
8.0224420011
 10
4.0906450321
 20
8.0294532191
 10
4.0345552885
 20
8.0319572255
 10
4.0345552885
 20
8.0319572255
 10
3.9759615385
 20
8.0294532191
 10
3.9198717949
 20
8.0224420011
 10
3.8662860577
 20
8.0104227703
 10
3.8152043269
 20
7.993896328
 10
3.7666266026
 20
7.9728626742
 10
3.7205528846
 20
7.9468210075
 10
3.6769831731
 20
7.915771328
 10
3.6359174679
 20
7.880214437
 10
3.5983573718
 20
7.8406511357
 10
3.5653044872
 20
7.7970814242
 10
3.5362580128
 20
7.7495053024
 10
3.5112179487
 20
7.6984235716
 10
3.4906850962
 20
7.6433354306
 10
3.4746594551
 20
7.5842408793
 10
3.4626402244
 20
7.5216407191
 10
3.4551282051
 20
7.4550341486
  0
LWPOLYLINE
  5
D6
330
1F
100
AcDbEntity
  8
0
  6
Continuous
 62
     7
100
AcDbPolyline
 90
       12
 70
   128
 43
0.0
 10
11.7044225335
 20
30.2242649178
 10
12.1666666667
 20
30.2242649178
 10
12.1666666667
 20
30.2242649178
 10
12.1666666667
 20
27.7242649178
 10
12.1666666667
 20
27.7242649178
 10
11.9423076923
 20
27.7242649178
 10
11.9423076923
 20
27.7242649178
 10
11.9423076923
 20
29.9678546614
 10
11.9423076923
 20
29.9678546614
 10
11.5576923077
 20
29.9678546614
 10
11.5576923077
 20
29.9678546614
 10
11.7044270833
 20
30.2242649178
  0
LWPOLYLINE
  5
D7
330
1F
100
AcDbEntity
  8
0
  6
Continuous
 62
     7
100
AcDbPolyline
 90
      184
 70
   128
 43
0.0
 10
13.4166628122
 20
29.6473418409
 10
13.1923076923
 20
29.6473418409
 10
13.1923076923
 20
29.6473418409
 10
13.2118389423
 20
29.7224620332
 10
13.2358774038
 20
29.7925742127
 10
13.2634214744
 20
29.8586799819
 10
13.2954727564
 20
29.9202785396
 10
13.3310296474
 20
29.9773698857
 10
13.37109375
 20
30.0299540203
 10
13.4151642628
 20
30.0785317447
 10
13.4632411859
 20
30.1221014562
 10
13.5143229167
 20
30.1611639562
 10
13.5679086538
 20
30.1947176421
 10
13.6234975962
 20
30.2232633152
 10
13.6815905449
 20
30.2468009755
 10
13.7421875
 20
30.2648298216
 10
13.8047876603
 20
30.277850655
 10
13.8693910256
 20
30.2858634755
 10
13.9364983974
 20
30.2883674819
 10
13.9364983974
 20
30.2883674819
 10
14.0341546474
 20
30.2828586678
 10
14.1283052885
 20
30.2658314242
 10
14.2189503205
 20
30.2377865524
 10
14.3065905449
 20
30.1987240524
 10
14.3877203526
 20
30.150146328
 10
14.4588341346
 20
30.0935557832
 10
14.5204326923
 20
30.0289524178
 10
14.5725160256
 20
29.9568370332
 10
14.6135817308
 20
29.8797136357
 10
14.6431290064
 20
29.8010878344
 10
14.6606570513
 20
29.7209596293
 10
14.6666666667
 20
29.6388282191
 10
14.6666666667
 20
29.6388282191
 10
14.6621594551
 20
29.5597016165
 10
14.6486378205
 20
29.4850822255
 10
14.6256009615
 20
29.4144692447
 10
14.5935496795
 20
29.3478626742
 10
14.5524839744
 20
29.2857633152
 10
14.5024038462
 20
29.2276703665
 10
14.4433092949
 20
29.1740846293
 10
14.3746995192
 20
29.1245053024
 10
14.3746995192
 20
29.1245053024
 10
14.4533253205
 20
29.0839403986
 10
14.5249399038
 20
29.0348618729
 10
14.5890424679
 20
28.9772697255
 10
14.6456330128
 20
28.9111639562
 10
14.6456330128
 20
28.9111639562
 10
14.6806891026
 20
28.861083828
 10
14.7107371795
 20
28.8090004947
 10
14.7367788462
 20
28.7559155588
 10
14.7578125
 20
28.7008274178
 10
14.773838141
 20
28.6447376742
 10
14.7853565705
 20
28.5871455268
 10
14.7923677885
 20
28.5275501742
 10
14.7948717949
 20
28.4669532191
 10
14.7948717949
 20
28.4669532191
 10
14.7878605769
 20
28.3622857511
 10
14.7663261218
 20
28.2601222896
 10
14.7307692308
 20
28.1599620332
 10
14.6806891026
 20
28.0628065844
 10
14.6185897436
 20
27.9721615524
 10
14.546474359
 20
27.8925341486
 10
14.4633413462
 20
27.8234235716
 10
14.3701923077
 20
27.7653306229
 10
14.2690304487
 20
27.719256905
 10
14.1618589744
 20
27.6867048216
 10
14.0486778846
 20
27.6666727703
 10
13.9299879808
 20
27.6601623537
 10
13.9299879808
 20
27.6601623537
 10
13.8498597756
 20
27.6631671614
 10
13.7727363782
 20
27.6716807832
 10
13.6991185897
 20
27.6867048216
 10
13.6290064103
 20
27.7072376742
 10
13.5623998397
 20
27.7332793409
 10
13.4992988782
 20
27.7653306229
 10
13.4392027244
 20
27.8033915203
 10
13.3826121795
 20
27.8474620332
 10
13.3300280449
 20
27.8970413601
 10
13.2824519231
 20
27.9521295011
 10
13.2393830128
 20
28.0127264562
 10
13.2013221154
 20
28.0788322255
 10
13.1677684295
 20
28.1499460075
 10
13.1392227564
 20
28.227069405
 10
13.1151842949
 20
28.3092008152
 10
13.0961538462
 20
28.3973418409
 10
13.0961538462
 20
28.3973418409
 10
13.3205128205
 20
28.3973418409
 10
13.3205128205
 20
28.3973418409
 10
13.3385416667
 20
28.3397496934
 10
13.3580729167
 20
28.2861639562
 10
13.3801081731
 20
28.2365846293
 10
13.4036458333
 20
28.1915125139
 10
13.4286858974
 20
28.1504468088
 10
13.4562299679
 20
28.1133875139
 10
13.4852764423
 20
28.0803346293
 10
13.5163261218
 20
28.0517889562
 10
13.5163261218
 20
28.0517889562
 10
13.5588942308
 20
28.0202384755
 10
13.6039663462
 20
27.992694405
 10
13.6520432692
 20
27.9691567447
 10
13.7026241987
 20
27.9506270973
 10
13.7562099359
 20
27.9356030588
 10
13.8128004808
 20
27.9250862319
 10
13.8718950321
 20
27.9185758152
 10
13.933994391
 20
27.9165726101
 10
13.933994391
 20
27.9165726101
 10
14.0041065705
 20
27.9190766165
 10
14.070713141
 20
27.9265886357
 10
14.1338141026
 20
27.9386078665
 10
14.1934094551
 20
27.9561359114
 10
14.2489983974
 20
27.9781711678
 10
14.3015825321
 20
28.0057152383
 10
14.3501602564
 20
28.0377665203
 10
14.3957331731
 20
28.0748258152
 10
14.4367988782
 20
28.1153907191
 10
14.4723557692
 20
28.1574580268
 10
14.5024038462
 20
28.2010277383
 10
14.526943109
 20
28.246600655
 10
14.5459735577
 20
28.2936759755
 10
14.5594951923
 20
28.3427545011
 10
14.5680088141
 20
28.3933354306
 10
14.5705128205
 20
28.4454187639
 10
14.5705128205
 20
28.4454187639
 10
14.5650040064
 20
28.5150301421
 10
14.5489783654
 20
28.5826383152
 10
14.5219350962
 20
28.6477424819
 10
14.4838741987
 20
28.7103426421
 10
14.4367988782
 20
28.7684355909
 10
14.3827123397
 20
28.8190165203
 10
14.3206129808
 20
28.8615846293
 10
14.2515024038
 20
28.8966407191
 10
14.2129407051
 20
28.9116647575
 10
14.1688701923
 20
28.9251863921
 10
14.1202924679
 20
28.9367048216
 10
14.0662059295
 20
28.9472216486
 10
14.0076121795
 20
28.9562360716
 10
13.9440104167
 20
28.9637480909
 10
13.8748998397
 20
28.9697577062
 10
13.8012820513
 20
28.9742649178
 10
13.8012820513
 20
28.9742649178
 10
13.8012820513
 20
29.2306751742
 10
13.8012820513
 20
29.2306751742
 10
13.8939302885
 20
29.2341807832
 10
13.9820713141
 20
29.2456992127
 10
14.0662059295
 20
29.2637280588
 10
14.1458333333
 20
29.2897697255
 10
14.2184495192
 20
29.3213202062
 10
14.2800480769
 20
29.3568770973
 10
14.3311298077
 20
29.3964403986
 10
14.3716947115
 20
29.4400101101
 10
14.402744391
 20
29.4870854306
 10
14.4247796474
 20
29.535663155
 10
14.4378004808
 20
29.5867448857
 10
14.4423076923
 20
29.6398298216
 10
14.4423076923
 20
29.6398298216
 10
14.4403044872
 20
29.6788923216
 10
14.4332932692
 20
29.7169532191
 10
14.422275641
 20
29.7530109114
 10
14.4067508013
 20
29.7885678024
 10
14.38671875
 20
29.8221214883
 10
14.3621794872
 20
29.8546735716
 10
14.3331330128
 20
29.8857232511
 10
14.2995793269
 20
29.9152705268
 10
14.2630208333
 20
29.9428145973
 10
14.2239583333
 20
29.9663522575
 10
14.1823918269
 20
29.9863843088
 10
14.1383213141
 20
30.0029107511
 10
14.0922475962
 20
30.0154307832
 10
14.0436698718
 20
30.0244452062
 10
13.992588141
 20
30.0299540203
 10
13.9395032051
 20
30.0319572255
 10
13.9395032051
 20
30.0319572255
 10
13.8543669872
 20
30.0264484114
 10
13.7747395833
 20
30.0099219691
 10
13.7016225962
 20
29.9828786998
 10
13.6340144231
 20
29.9443170011
 10
13.6024639423
 20
29.9202785396
 10
13.5724158654
 20
29.8927344691
 10
13.543369391
 20
29.8616847896
 10
13.5158253205
 20
29.8261278986
 10
13.4887820513
 20
29.7870653986
 10
13.4637419872
 20
29.7444972896
 10
13.4397035256
 20
29.6979227703
 10
13.4166666667
 20
29.6473418409
  0
LWPOLYLINE
  5
D8
330
1F
100
AcDbEntity
  8
0
  6
Continuous
 62
     7
100
AcDbPolyline
 90
       12
 70
   128
 43
0.0
 10
11.7044225335
 20
8.2242649178
 10
12.1666666667
 20
8.2242649178
 10
12.1666666667
 20
8.2242649178
 10
12.1666666667
 20
5.7242649178
 10
12.1666666667
 20
5.7242649178
 10
11.9423076923
 20
5.7242649178
 10
11.9423076923
 20
5.7242649178
 10
11.9423076923
 20
7.9678546614
 10
11.9423076923
 20
7.9678546614
 10
11.5576923077
 20
7.9678546614
 10
11.5576923077
 20
7.9678546614
 10
11.7044270833
 20
8.2242649178
  0
LWPOLYLINE
  5
D9
330
1F
100
AcDbEntity
  8
0
  6
Continuous
 62
     7
100
AcDbPolyline
 90
       20
 70
   128
 43
0.0
 10
14.4608318806
 20
8.2883674819
 10
14.5064102564
 20
8.2883674819
 10
14.5064102564
 20
8.2883674819
 10
14.5064102564
 20
6.5575982511
 10
14.5064102564
 20
6.5575982511
 10
14.7948717949
 20
6.5575982511
 10
14.7948717949
 20
6.5575982511
 10
14.7948717949
 20
6.3011879947
 10
14.7948717949
 20
6.3011879947
 10
14.5064102564
 20
6.3011879947
 10
14.5064102564
 20
6.3011879947
 10
14.5064102564
 20
5.7242649178
 10
14.5064102564
 20
5.7242649178
 10
14.2820512821
 20
5.7242649178
 10
14.2820512821
 20
5.7242649178
 10
14.2820512821
 20
6.3011879947
 10
14.2820512821
 20
6.3011879947
 10
13.0961538462
 20
6.3011879947
 10
13.0961538462
 20
6.3011879947
 10
14.4608373397
 20
8.2883674819
  0
LWPOLYLINE
  5
DA
330
1F
100
AcDbEntity
  8
0
  6
Continuous
 62
     7
100
AcDbPolyline
 90
        6
 70
   128
 43
0.0
 10
14.2820477486
 20
6.5575982511
 10
14.2820512821
 20
7.642333828
 10
14.2820512821
 20
7.642333828
 10
13.5373597756
 20
6.5575982511
 10
13.5373597756
 20
6.5575982511
 10
14.2820512821
 20
6.5575982511
  0
LWPOLYLINE
  5
DB
330
1F
100
AcDbEntity
  8
0
  6
Continuous
 62
     7
100
AcDbPolyline
 90
      184
 70
   128
 43
0.0
 10
20.455121994
 20
29.6473418409
 10
20.2307692308
 20
29.6473418409
 10
20.2307692308
 20
29.6473418409
 10
20.2503004808
 20
29.7224620332
 10
20.2743389423
 20
29.7925742127
 10
20.3018830128
 20
29.8586799819
 10
20.3339342949
 20
29.9202785396
 10
20.3694911859
 20
29.9773698857
 10
20.4095552885
 20
30.0299540203
 10
20.4536258013
 20
30.0785317447
 10
20.5017027244
 20
30.1221014562
 10
20.5527844551
 20
30.1611639562
 10
20.6063701923
 20
30.1947176421
 10
20.6619591346
 20
30.2232633152
 10
20.7200520833
 20
30.2468009755
 10
20.7806490385
 20
30.2648298216
 10
20.8432491987
 20
30.277850655
 10
20.9078525641
 20
30.2858634755
 10
20.9749599359
 20
30.2883674819
 10
20.9749599359
 20
30.2883674819
 10
21.0726161859
 20
30.2828586678
 10
21.1667668269
 20
30.2658314242
 10
21.257411859
 20
30.2377865524
 10
21.3450520833
 20
30.1987240524
 10
21.426181891
 20
30.150146328
 10
21.4972956731
 20
30.0935557832
 10
21.5588942308
 20
30.0289524178
 10
21.6109775641
 20
29.9568370332
 10
21.6520432692
 20
29.8797136357
 10
21.6815905449
 20
29.8010878344
 10
21.6991185897
 20
29.7209596293
 10
21.7051282051
 20
29.6388282191
 10
21.7051282051
 20
29.6388282191
 10
21.7006209936
 20
29.5597016165
 10
21.687099359
 20
29.4850822255
 10
21.6640625
 20
29.4144692447
 10
21.6320112179
 20
29.3478626742
 10
21.5909455128
 20
29.2857633152
 10
21.5408653846
 20
29.2276703665
 10
21.4817708333
 20
29.1740846293
 10
21.4131610577
 20
29.1245053024
 10
21.4131610577
 20
29.1245053024
 10
21.491786859
 20
29.0839403986
 10
21.5634014423
 20
29.0348618729
 10
21.6275040064
 20
28.9772697255
 10
21.6840945513
 20
28.9111639562
 10
21.6840945513
 20
28.9111639562
 10
21.719150641
 20
28.861083828
 10
21.7491987179
 20
28.8090004947
 10
21.7752403846
 20
28.7559155588
 10
21.7962740385
 20
28.7008274178
 10
21.8122996795
 20
28.6447376742
 10
21.823818109
 20
28.5871455268
 10
21.8308293269
 20
28.5275501742
 10
21.8333333333
 20
28.4669532191
 10
21.8333333333
 20
28.4669532191
 10
21.8263221154
 20
28.3622857511
 10
21.8047876603
 20
28.2601222896
 10
21.7692307692
 20
28.1599620332
 10
21.719150641
 20
28.0628065844
 10
21.6570512821
 20
27.9721615524
 10
21.5849358974
 20
27.8925341486
 10
21.5018028846
 20
27.8234235716
 10
21.4086538462
 20
27.7653306229
 10
21.3074919872
 20
27.719256905
 10
21.2003205128
 20
27.6867048216
 10
21.0871394231
 20
27.6666727703
 10
20.9684495192
 20
27.6601623537
 10
20.9684495192
 20
27.6601623537
 10
20.8883213141
 20
27.6631671614
 10
20.8111979167
 20
27.6716807832
 10
20.7375801282
 20
27.6867048216
 10
20.6674679487
 20
27.7072376742
 10
20.6008613782
 20
27.7332793409
 10
20.5377604167
 20
27.7653306229
 10
20.4776642628
 20
27.8033915203
 10
20.4210737179
 20
27.8474620332
 10
20.3684895833
 20
27.8970413601
 10
20.3209134615
 20
27.9521295011
 10
20.2778445513
 20
28.0127264562
 10
20.2397836538
 20
28.0788322255
 10
20.2062299679
 20
28.1499460075
 10
20.1776842949
 20
28.227069405
 10
20.1536458333
 20
28.3092008152
 10
20.1346153846
 20
28.3973418409
 10
20.1346153846
 20
28.3973418409
 10
20.358974359
 20
28.3973418409
 10
20.358974359
 20
28.3973418409
 10
20.3770032051
 20
28.3397496934
 10
20.3965344551
 20
28.2861639562
 10
20.4185697115
 20
28.2365846293
 10
20.4421073718
 20
28.1915125139
 10
20.4671474359
 20
28.1504468088
 10
20.4946915064
 20
28.1133875139
 10
20.5237379808
 20
28.0803346293
 10
20.5547876603
 20
28.0517889562
 10
20.5547876603
 20
28.0517889562
 10
20.5973557692
 20
28.0202384755
 10
20.6424278846
 20
27.992694405
 10
20.6905048077
 20
27.9691567447
 10
20.7410857372
 20
27.9506270973
 10
20.7946714744
 20
27.9356030588
 10
20.8512620192
 20
27.9250862319
 10
20.9103565705
 20
27.9185758152
 10
20.9724559295
 20
27.9165726101
 10
20.9724559295
 20
27.9165726101
 10
21.042568109
 20
27.9190766165
 10
21.1091746795
 20
27.9265886357
 10
21.172275641
 20
27.9386078665
 10
21.2318709936
 20
27.9561359114
 10
21.2874599359
 20
27.9781711678
 10
21.3400440705
 20
28.0057152383
 10
21.3886217949
 20
28.0377665203
 10
21.4341947115
 20
28.0748258152
 10
21.4752604167
 20
28.1153907191
 10
21.5108173077
 20
28.1574580268
 10
21.5408653846
 20
28.2010277383
 10
21.5654046474
 20
28.246600655
 10
21.5844350962
 20
28.2936759755
 10
21.5979567308
 20
28.3427545011
 10
21.6064703526
 20
28.3933354306
 10
21.608974359
 20
28.4454187639
 10
21.608974359
 20
28.4454187639
 10
21.6034655449
 20
28.5150301421
 10
21.5874399038
 20
28.5826383152
 10
21.5603966346
 20
28.6477424819
 10
21.5223357372
 20
28.7103426421
 10
21.4752604167
 20
28.7684355909
 10
21.4211738782
 20
28.8190165203
 10
21.3590745192
 20
28.8615846293
 10
21.2899639423
 20
28.8966407191
 10
21.2514022436
 20
28.9116647575
 10
21.2073317308
 20
28.9251863921
 10
21.1587540064
 20
28.9367048216
 10
21.1046674679
 20
28.9472216486
 10
21.0460737179
 20
28.9562360716
 10
20.9824719551
 20
28.9637480909
 10
20.9133613782
 20
28.9697577062
 10
20.8397435897
 20
28.9742649178
 10
20.8397435897
 20
28.9742649178
 10
20.8397435897
 20
29.2306751742
 10
20.8397435897
 20
29.2306751742
 10
20.9323918269
 20
29.2341807832
 10
21.0205328526
 20
29.2456992127
 10
21.1046674679
 20
29.2637280588
 10
21.1842948718
 20
29.2897697255
 10
21.2569110577
 20
29.3213202062
 10
21.3185096154
 20
29.3568770973
 10
21.3695913462
 20
29.3964403986
 10
21.41015625
 20
29.4400101101
 10
21.4412059295
 20
29.4870854306
 10
21.4632411859
 20
29.535663155
 10
21.4762620192
 20
29.5867448857
 10
21.4807692308
 20
29.6398298216
 10
21.4807692308
 20
29.6398298216
 10
21.4787660256
 20
29.6788923216
 10
21.4717548077
 20
29.7169532191
 10
21.4607371795
 20
29.7530109114
 10
21.4452123397
 20
29.7885678024
 10
21.4251802885
 20
29.8221214883
 10
21.4006410256
 20
29.8546735716
 10
21.3715945513
 20
29.8857232511
 10
21.3380408654
 20
29.9152705268
 10
21.3014823718
 20
29.9428145973
 10
21.2624198718
 20
29.9663522575
 10
21.2208533654
 20
29.9863843088
 10
21.1767828526
 20
30.0029107511
 10
21.1307091346
 20
30.0154307832
 10
21.0821314103
 20
30.0244452062
 10
21.0310496795
 20
30.0299540203
 10
20.9779647436
 20
30.0319572255
 10
20.9779647436
 20
30.0319572255
 10
20.8928285256
 20
30.0264484114
 10
20.8132011218
 20
30.0099219691
 10
20.7400841346
 20
29.9828786998
 10
20.6724759615
 20
29.9443170011
 10
20.6409254808
 20
29.9202785396
 10
20.6108774038
 20
29.8927344691
 10
20.5818309295
 20
29.8616847896
 10
20.554286859
 20
29.8261278986
 10
20.5272435897
 20
29.7870653986
 10
20.5022035256
 20
29.7444972896
 10
20.4781650641
 20
29.6979227703
 10
20.4551282051
 20
29.6473418409
  0
LWPOLYLINE
  5
DC
330
1F
100
AcDbEntity
  8
0
  6
Continuous
 62
     7
100
AcDbPolyline
 90
       20
 70
   128
 43
0.0
 10
21.4992910624
 20
8.2883674819
 10
21.5448717949
 20
8.2883674819
 10
21.5448717949
 20
8.2883674819
 10
21.5448717949
 20
6.5575982511
 10
21.5448717949
 20
6.5575982511
 10
21.8333333333
 20
6.5575982511
 10
21.8333333333
 20
6.5575982511
 10
21.8333333333
 20
6.3011879947
 10
21.8333333333
 20
6.3011879947
 10
21.5448717949
 20
6.3011879947
 10
21.5448717949
 20
6.3011879947
 10
21.5448717949
 20
5.7242649178
 10
21.5448717949
 20
5.7242649178
 10
21.3205128205
 20
5.7242649178
 10
21.3205128205
 20
5.7242649178
 10
21.3205128205
 20
6.3011879947
 10
21.3205128205
 20
6.3011879947
 10
20.1346153846
 20
6.3011879947
 10
20.1346153846
 20
6.3011879947
 10
21.4992988782
 20
8.2883674819
  0
LWPOLYLINE
  5
DD
330
1F
100
AcDbEntity
  8
0
  6
Continuous
 62
     7
100
AcDbPolyline
 90
        6
 70
   128
 43
0.0
 10
21.3205069304
 20
6.5575982511
 10
21.3205128205
 20
7.642333828
 10
21.3205128205
 20
7.642333828
 10
20.5758213141
 20
6.5575982511
 10
20.5758213141
 20
6.5575982511
 10
21.3205128205
 20
6.5575982511
  0
LWPOLYLINE
  5
DE
330
1F
100
AcDbEntity
  8
0
  6
Continuous
 62
     7
100
AcDbPolyline
 90
       12
 70
   128
 43
0.0
 10
28.7044197321
 20
30.2242649178
 10
29.1666666667
 20
30.2242649178
 10
29.1666666667
 20
30.2242649178
 10
29.1666666667
 20
27.7242649178
 10
29.1666666667
 20
27.7242649178
 10
28.9423076923
 20
27.7242649178
 10
28.9423076923
 20
27.7242649178
 10
28.9423076923
 20
29.9678546614
 10
28.9423076923
 20
29.9678546614
 10
28.5576923077
 20
29.9678546614
 10
28.5576923077
 20
29.9678546614
 10
28.7044270833
 20
30.2242649178
  0
LWPOLYLINE
  5
DF
330
1F
100
AcDbEntity
  8
0
  6
Continuous
 62
     7
100
AcDbPolyline
 90
      132
 70
   128
 43
0.0
 10
31.6666662693
 20
30.2242649178
 10
31.6666666667
 20
29.9678546614
 10
31.6666666667
 20
29.9678546614
 10
30.816806891
 20
29.9678546614
 10
30.816806891
 20
29.9678546614
 10
30.6815905449
 20
29.310302578
 10
30.6815905449
 20
29.310302578
 10
30.7612179487
 20
29.3313362319
 10
30.8368389423
 20
29.3468610716
 10
30.9084535256
 20
29.3558754947
 10
30.9760616987
 20
29.3588803024
 10
30.9760616987
 20
29.3588803024
 10
31.0596955128
 20
29.3553746934
 10
31.1398237179
 20
29.3443570652
 10
31.2159455128
 20
29.3263282191
 10
31.2885616987
 20
29.301288155
 10
31.3571714744
 20
29.2692368729
 10
31.4217748397
 20
29.2296735716
 10
31.4828725962
 20
29.1830990524
 10
31.5404647436
 20
29.1290125139
 10
31.5925480769
 20
29.0694171614
 10
31.6376201923
 20
29.0063161998
 10
31.676181891
 20
28.9387080268
 10
31.7072315705
 20
28.8675942447
 10
31.7317708333
 20
28.7919732511
 10
31.7487980769
 20
28.7123458473
 10
31.7593149038
 20
28.6287120332
 10
31.7628205128
 20
28.5410718088
 10
31.7628205128
 20
28.5410718088
 10
31.7608173077
 20
28.4799740524
 10
31.7558092949
 20
28.4198778986
 10
31.7467948718
 20
28.3612841486
 10
31.7342748397
 20
28.3036920011
 10
31.7182491987
 20
28.2476022575
 10
31.6987179487
 20
28.1930149178
 10
31.6751802885
 20
28.1394291806
 10
31.6486378205
 20
28.086845046
 10
31.6190905449
 20
28.0367649178
 10
31.5865384615
 20
27.9896895973
 10
31.5519831731
 20
27.9456190844
 10
31.5149238782
 20
27.9045533793
 10
31.4748597756
 20
27.8664924819
 10
31.4322916667
 20
27.8314363921
 10
31.3877203526
 20
27.7993851101
 10
31.3401442308
 20
27.7703386357
 10
31.2905649038
 20
27.7442969691
 10
31.2389823718
 20
27.7222617127
 10
31.1858974359
 20
27.7032312639
 10
31.1308092949
 20
27.6877064242
 10
31.0737179487
 20
27.6756871934
 10
31.0146233974
 20
27.6671735716
 10
30.953525641
 20
27.6616647575
 10
30.8909254808
 20
27.6601623537
 10
30.8909254808
 20
27.6601623537
 10
30.8163060897
 20
27.6631671614
 10
30.7446915064
 20
27.6726823857
 10
30.6760817308
 20
27.6877064242
 10
30.6104767628
 20
27.7092408793
 10
30.5478766026
 20
27.7367849498
 10
30.48828125
 20
27.770839437
 10
30.4311899038
 20
27.8104027383
 10
30.3776041667
 20
27.8564764562
 10
30.3280248397
 20
27.907558187
 10
30.2839543269
 20
27.9621455268
 10
30.2448918269
 20
28.0202384755
 10
30.2108373397
 20
28.0823378344
 10
30.1822916667
 20
28.1474420011
 10
30.1592548077
 20
28.216552578
 10
30.1412259615
 20
28.2891687639
 10
30.1282051282
 20
28.3652905588
 10
30.1282051282
 20
28.3652905588
 10
30.3525641026
 20
28.3652905588
 10
30.3525641026
 20
28.3652905588
 10
30.3705929487
 20
28.2941767768
 10
30.3936298077
 20
28.2305750139
 10
30.4221754808
 20
28.1734836678
 10
30.4557291667
 20
28.1234035396
 10
30.4952924679
 20
28.0793330268
 10
30.5408653846
 20
28.0397697255
 10
30.5924479167
 20
28.0042128344
 10
30.6500400641
 20
27.9736639562
 10
30.7111378205
 20
27.9486238921
 10
30.7742387821
 20
27.9310958473
 10
30.8383413462
 20
27.9200782191
 10
30.9039463141
 20
27.9165726101
 10
30.9039463141
 20
27.9165726101
 10
30.9680488782
 20
27.9195774178
 10
31.0296474359
 20
27.9280910396
 10
31.0892427885
 20
27.9421134755
 10
31.1463341346
 20
27.9621455268
 10
31.2009214744
 20
27.9871855909
 10
31.253505609
 20
28.0187360716
 10
31.3035857372
 20
28.0552945652
 10
31.3516626603
 20
28.0978626742
 10
31.3952323718
 20
28.1444371934
 10
31.4332932692
 20
28.1940165203
 10
31.4653445513
 20
28.246600655
 10
31.4918870192
 20
28.301688796
 10
31.5124198718
 20
28.3597817447
 10
31.526943109
 20
28.4203786998
 10
31.5354567308
 20
28.4839804627
 10
31.5384615385
 20
28.5505870332
 10
31.5384615385
 20
28.5505870332
 10
31.5359575321
 20
28.610683187
 10
31.5284455128
 20
28.6677745332
 10
31.5154246795
 20
28.7218610716
 10
31.4973958333
 20
28.7729428024
 10
31.4743589744
 20
28.8215205268
 10
31.4463141026
 20
28.8670934434
 10
31.4127604167
 20
28.9096615524
 10
31.3741987179
 20
28.9492248537
 10
31.331630609
 20
28.985282546
 10
31.2850560897
 20
29.0163322255
 10
31.2354767628
 20
29.0423738921
 10
31.1823918269
 20
29.0644091486
 10
31.1258012821
 20
29.0809355909
 10
31.0657051282
 20
29.0929548216
 10
31.0026041667
 20
29.0999660396
 10
30.9354967949
 20
29.102470046
 10
30.9354967949
 20
29.102470046
 10
30.8774038462
 20
29.1004668409
 10
30.8158052885
 20
29.0944572255
 10
30.7517027244
 20
29.0844411998
 10
30.6840945513
 20
29.0704187639
 10
30.6139823718
 20
29.0523899178
 10
30.5403645833
 20
29.0303546614
 10
30.4642427885
 20
29.0043129947
 10
30.3846153846
 20
28.9742649178
 10
30.3846153846
 20
28.9742649178
 10
30.641025641
 20
30.2242649178
 10
30.641025641
 20
30.2242649178
 10
31.6666666667
 20
30.2242649178
  0
LWPOLYLINE
  5
E0
330
1F
100
AcDbEntity
  8
0
  6
Continuous
 62
     7
100
AcDbPolyline
 90
       12
 70
   128
 43
0.0
 10
28.7044197321
 20
8.2242649178
 10
29.1666666667
 20
8.2242649178
 10
29.1666666667
 20
8.2242649178
 10
29.1666666667
 20
5.7242649178
 10
29.1666666667
 20
5.7242649178
 10
28.9423076923
 20
5.7242649178
 10
28.9423076923
 20
5.7242649178
 10
28.9423076923
 20
7.9678546614
 10
28.9423076923
 20
7.9678546614
 10
28.5576923077
 20
7.9678546614
 10
28.5576923077
 20
7.9678546614
 10
28.7044270833
 20
8.2242649178
  0
LWPOLYLINE
  5
E1
330
1F
100
AcDbEntity
  8
0
  6
Continuous
 62
     7
100
AcDbPolyline
 90
       65
 70
   128
 43
0.0
 10
31.25
 20
8.2883674819
 10
31.4232772436
 20
8.1526503344
 10
31.4232772436
 20
8.1526503344
 10
30.7627203526
 20
7.1425341486
 10
30.7627203526
 20
7.1425341486
 10
30.894931891
 20
7.1605629947
 10
31.0216346154
 20
7.1665726101
 10
31.0216346154
 20
7.1665726101
 10
31.0977564103
 20
7.1630670011
 10
31.1703725962
 20
7.1530509755
 10
31.2404847756
 20
7.1365245332
 10
31.3075921474
 20
7.1129868729
 10
31.3716947115
 20
7.082938796
 10
31.4332932692
 20
7.0463803024
 10
31.4913862179
 20
7.0028105909
 10
31.5469751603
 20
6.9527304627
 10
31.5975560897
 20
6.8976423216
 10
31.6416266026
 20
6.8395493729
 10
31.6786858974
 20
6.7784516165
 10
31.7087339744
 20
6.7143490524
 10
31.7322716346
 20
6.6467408793
 10
31.7492988782
 20
6.5761278986
 10
31.7593149038
 20
6.5025101101
 10
31.7628205128
 20
6.4258875139
 10
31.7628205128
 20
6.4258875139
 10
31.7568108974
 20
6.321220046
 10
31.7377804487
 20
6.2215605909
 10
31.7067307692
 20
6.1274099498
 10
31.6626602564
 20
6.0377665203
 10
31.6075721154
 20
5.9556351101
 10
31.5414663462
 20
5.8825181229
 10
31.4653445513
 20
5.8179147575
 10
31.3782051282
 20
5.7623258152
 10
31.2845552885
 20
5.7177545011
 10
31.1868990385
 20
5.6857032191
 10
31.0862379808
 20
5.6666727703
 10
30.9815705128
 20
5.6601623537
 10
30.9815705128
 20
5.6601623537
 10
30.8809094551
 20
5.6661719691
 10
30.7837540064
 20
5.6847016165
 10
30.6901041667
 20
5.715751296
 10
30.6004607372
 20
5.7588202062
 10
30.5173277244
 20
5.813407546
 10
30.4437099359
 20
5.8780109114
 10
30.3791065705
 20
5.9526303024
 10
30.3245192308
 20
6.0372657191
 10
30.2809495192
 20
6.1289123537
 10
30.2493990385
 20
6.2230629947
 10
30.230869391
 20
6.3207192447
 10
30.2243589744
 20
6.4213803024
 10
30.2243589744
 20
6.4213803024
 10
30.2283653846
 20
6.4985036998
 10
30.2398838141
 20
6.5781311037
 10
30.2589142628
 20
6.6592609114
 10
30.2854567308
 20
6.7423939242
 10
30.3024839744
 20
6.7854628344
 10
30.3220152244
 20
6.8310357511
 10
30.3450520833
 20
6.8781110716
 10
30.3705929487
 20
6.9276903986
 10
30.3996394231
 20
6.9797737319
 10
30.4311899038
 20
7.0333594691
 10
30.4662459936
 20
7.0894492127
 10
30.5038060897
 20
7.1475421614
 10
30.5038060897
 20
7.1475421614
 10
31.25
 20
8.2883674819
  0
LWPOLYLINE
  5
E2
330
1F
100
AcDbEntity
  8
0
  6
Continuous
 62
     7
100
AcDbPolyline
 90
       68
 70
   128
 43
0.0
 10
30.9745520353
 20
6.9101623537
 10
30.9174679487
 20
6.9076583473
 10
30.862880609
 20
6.9011479306
 10
30.8112980769
 20
6.8896295011
 10
30.7627203526
 20
6.8741046614
 10
30.7166466346
 20
6.8535718088
 10
30.6730769231
 20
6.8285317447
 10
30.6325120192
 20
6.7989844691
 10
30.5944511218
 20
6.7649299819
 10
30.5603966346
 20
6.727870687
 10
30.530849359
 20
6.6883073857
 10
30.5058092949
 20
6.6472416806
 10
30.4852764423
 20
6.6041727703
 10
30.4692508013
 20
6.559100655
 10
30.4577323718
 20
6.5120253344
 10
30.4512219551
 20
6.4634476101
 10
30.4487179487
 20
6.4123658793
 10
30.4487179487
 20
6.4123658793
 10
30.4512219551
 20
6.3617849498
 10
30.4587339744
 20
6.3137080268
 10
30.4712540064
 20
6.2666327062
 10
30.4887820513
 20
6.2220613921
 10
30.5108173077
 20
6.1789924819
 10
30.5383613782
 20
6.138427578
 10
30.5704126603
 20
6.0988642768
 10
30.6079727564
 20
6.0618049819
 10
30.6490384615
 20
6.0277504947
 10
30.6921073718
 20
5.9982032191
 10
30.7371794872
 20
5.973163155
 10
30.7842548077
 20
5.9531311037
 10
30.8333333333
 20
5.9371054627
 10
30.8849158654
 20
5.9255870332
 10
30.9380008013
 20
5.9190766165
 10
30.9935897436
 20
5.9165726101
 10
30.9935897436
 20
5.9165726101
 10
31.0491786859
 20
5.9190766165
 10
31.1022636218
 20
5.9255870332
 10
31.1538461538
 20
5.9371054627
 10
31.2029246795
 20
5.9531311037
 10
31.25
 20
5.973163155
 10
31.2950721154
 20
5.9982032191
 10
31.3376402244
 20
6.0277504947
 10
31.3787059295
 20
6.0618049819
 10
31.4162660256
 20
6.0988642768
 10
31.448818109
 20
6.138427578
 10
31.4758613782
 20
6.1789924819
 10
31.4983974359
 20
6.2220613921
 10
31.5159254808
 20
6.2666327062
 10
31.5284455128
 20
6.3137080268
 10
31.5359575321
 20
6.3617849498
 10
31.5384615385
 20
6.4123658793
 10
31.5384615385
 20
6.4123658793
 10
31.5359575321
 20
6.4634476101
 10
31.5279447115
 20
6.5120253344
 10
31.5154246795
 20
6.559100655
 10
31.4973958333
 20
6.6041727703
 10
31.4738581731
 20
6.6472416806
 10
31.4453125
 20
6.6883073857
 10
31.4117588141
 20
6.727870687
 10
31.3731971154
 20
6.7649299819
 10
31.3306290064
 20
6.7989844691
 10
31.2865584936
 20
6.8285317447
 10
31.2394831731
 20
6.8535718088
 10
31.1909054487
 20
6.8741046614
 10
31.1398237179
 20
6.8896295011
 10
31.0872395833
 20
6.9011479306
 10
31.031650641
 20
6.9076583473
 10
30.9745592949
 20
6.9101623537
  0
LWPOLYLINE
  5
E3
330
1F
100
AcDbEntity
  8
0
  6
Continuous
 62
     7
100
AcDbPolyline
 90
      132
 70
   128
 43
0.0
 10
38.7051105499
 20
30.2242649178
 10
38.7051282051
 20
29.9678546614
 10
38.7051282051
 20
29.9678546614
 10
37.8552684295
 20
29.9678546614
 10
37.8552684295
 20
29.9678546614
 10
37.7200520833
 20
29.310302578
 10
37.7200520833
 20
29.310302578
 10
37.7996794872
 20
29.3313362319
 10
37.8753004808
 20
29.3468610716
 10
37.9469150641
 20
29.3558754947
 10
38.0145232372
 20
29.3588803024
 10
38.0145232372
 20
29.3588803024
 10
38.0981570513
 20
29.3553746934
 10
38.1782852564
 20
29.3443570652
 10
38.2544070513
 20
29.3263282191
 10
38.3270232372
 20
29.301288155
 10
38.3956330128
 20
29.2692368729
 10
38.4602363782
 20
29.2296735716
 10
38.5213341346
 20
29.1830990524
 10
38.5789262821
 20
29.1290125139
 10
38.6310096154
 20
29.0694171614
 10
38.6760817308
 20
29.0063161998
 10
38.7146434295
 20
28.9387080268
 10
38.745693109
 20
28.8675942447
 10
38.7702323718
 20
28.7919732511
 10
38.7872596154
 20
28.7123458473
 10
38.7977764423
 20
28.6287120332
 10
38.8012820513
 20
28.5410718088
 10
38.8012820513
 20
28.5410718088
 10
38.7992788462
 20
28.4799740524
 10
38.7942708333
 20
28.4198778986
 10
38.7852564103
 20
28.3612841486
 10
38.7727363782
 20
28.3036920011
 10
38.7567107372
 20
28.2476022575
 10
38.7371794872
 20
28.1930149178
 10
38.7136418269
 20
28.1394291806
 10
38.687099359
 20
28.086845046
 10
38.6575520833
 20
28.0367649178
 10
38.625
 20
27.9896895973
 10
38.5904447115
 20
27.9456190844
 10
38.5533854167
 20
27.9045533793
 10
38.5133213141
 20
27.8664924819
 10
38.4707532051
 20
27.8314363921
 10
38.426181891
 20
27.7993851101
 10
38.3786057692
 20
27.7703386357
 10
38.3290264423
 20
27.7442969691
 10
38.2774439103
 20
27.7222617127
 10
38.2243589744
 20
27.7032312639
 10
38.1692708333
 20
27.6877064242
 10
38.1121794872
 20
27.6756871934
 10
38.0530849359
 20
27.6671735716
 10
37.9919871795
 20
27.6616647575
 10
37.9293870192
 20
27.6601623537
 10
37.9293870192
 20
27.6601623537
 10
37.8547676282
 20
27.6631671614
 10
37.7831530449
 20
27.6726823857
 10
37.7145432692
 20
27.6877064242
 10
37.6489383013
 20
27.7092408793
 10
37.586338141
 20
27.7367849498
 10
37.5267427885
 20
27.770839437
 10
37.4696514423
 20
27.8104027383
 10
37.4160657051
 20
27.8564764562
 10
37.3664863782
 20
27.907558187
 10
37.3224158654
 20
27.9621455268
 10
37.2833533654
 20
28.0202384755
 10
37.2492988782
 20
28.0823378344
 10
37.2207532051
 20
28.1474420011
 10
37.1977163462
 20
28.216552578
 10
37.1796875
 20
28.2891687639
 10
37.1666666667
 20
28.3652905588
 10
37.1666666667
 20
28.3652905588
 10
37.391025641
 20
28.3652905588
 10
37.391025641
 20
28.3652905588
 10
37.4090544872
 20
28.2941767768
 10
37.4320913462
 20
28.2305750139
 10
37.4606370192
 20
28.1734836678
 10
37.4941907051
 20
28.1234035396
 10
37.5337540064
 20
28.0793330268
 10
37.5793269231
 20
28.0397697255
 10
37.6309094551
 20
28.0042128344
 10
37.6885016026
 20
27.9736639562
 10
37.749599359
 20
27.9486238921
 10
37.8127003205
 20
27.9310958473
 10
37.8768028846
 20
27.9200782191
 10
37.9424078526
 20
27.9165726101
 10
37.9424078526
 20
27.9165726101
 10
38.0065104167
 20
27.9195774178
 10
38.0681089744
 20
27.9280910396
 10
38.1277043269
 20
27.9421134755
 10
38.1847956731
 20
27.9621455268
 10
38.2393830128
 20
27.9871855909
 10
38.2919671474
 20
28.0187360716
 10
38.3420472756
 20
28.0552945652
 10
38.3901241987
 20
28.0978626742
 10
38.4336939103
 20
28.1444371934
 10
38.4717548077
 20
28.1940165203
 10
38.5038060897
 20
28.246600655
 10
38.5303485577
 20
28.301688796
 10
38.5508814103
 20
28.3597817447
 10
38.5654046474
 20
28.4203786998
 10
38.5739182692
 20
28.4839804627
 10
38.5769230769
 20
28.5505870332
 10
38.5769230769
 20
28.5505870332
 10
38.5744190705
 20
28.610683187
 10
38.5669070513
 20
28.6677745332
 10
38.5538862179
 20
28.7218610716
 10
38.5358573718
 20
28.7729428024
 10
38.5128205128
 20
28.8215205268
 10
38.484775641
 20
28.8670934434
 10
38.4512219551
 20
28.9096615524
 10
38.4126602564
 20
28.9492248537
 10
38.3700921474
 20
28.985282546
 10
38.3235176282
 20
29.0163322255
 10
38.2739383013
 20
29.0423738921
 10
38.2208533654
 20
29.0644091486
 10
38.1642628205
 20
29.0809355909
 10
38.1041666667
 20
29.0929548216
 10
38.0410657051
 20
29.0999660396
 10
37.9739583333
 20
29.102470046
 10
37.9739583333
 20
29.102470046
 10
37.9158653846
 20
29.1004668409
 10
37.8542668269
 20
29.0944572255
 10
37.7901642628
 20
29.0844411998
 10
37.7225560897
 20
29.0704187639
 10
37.6524439103
 20
29.0523899178
 10
37.5788261218
 20
29.0303546614
 10
37.5027043269
 20
29.0043129947
 10
37.4230769231
 20
28.9742649178
 10
37.4230769231
 20
28.9742649178
 10
37.6794871795
 20
30.2242649178
 10
37.6794871795
 20
30.2242649178
 10
38.7051282051
 20
30.2242649178
  0
LWPOLYLINE
  5
E4
330
1F
100
AcDbEntity
  8
0
  6
Continuous
 62
     7
100
AcDbPolyline
 90
       65
 70
   128
 43
0.0
 10
38.2884442806
 20
8.2883674819
 10
38.4617387821
 20
8.1526503344
 10
38.4617387821
 20
8.1526503344
 10
37.801181891
 20
7.1425341486
 10
37.801181891
 20
7.1425341486
 10
37.9333934295
 20
7.1605629947
 10
38.0600961538
 20
7.1665726101
 10
38.0600961538
 20
7.1665726101
 10
38.1362179487
 20
7.1630670011
 10
38.2088341346
 20
7.1530509755
 10
38.2789463141
 20
7.1365245332
 10
38.3460536859
 20
7.1129868729
 10
38.41015625
 20
7.082938796
 10
38.4717548077
 20
7.0463803024
 10
38.5298477564
 20
7.0028105909
 10
38.5854366987
 20
6.9527304627
 10
38.6360176282
 20
6.8976423216
 10
38.680088141
 20
6.8395493729
 10
38.7171474359
 20
6.7784516165
 10
38.7471955128
 20
6.7143490524
 10
38.7707331731
 20
6.6467408793
 10
38.7877604167
 20
6.5761278986
 10
38.7977764423
 20
6.5025101101
 10
38.8012820513
 20
6.4258875139
 10
38.8012820513
 20
6.4258875139
 10
38.7952724359
 20
6.321220046
 10
38.7762419872
 20
6.2215605909
 10
38.7451923077
 20
6.1274099498
 10
38.7011217949
 20
6.0377665203
 10
38.6460336538
 20
5.9556351101
 10
38.5799278846
 20
5.8825181229
 10
38.5038060897
 20
5.8179147575
 10
38.4166666667
 20
5.7623258152
 10
38.3230168269
 20
5.7177545011
 10
38.2253605769
 20
5.6857032191
 10
38.1246995192
 20
5.6666727703
 10
38.0200320513
 20
5.6601623537
 10
38.0200320513
 20
5.6601623537
 10
37.9193709936
 20
5.6661719691
 10
37.8222155449
 20
5.6847016165
 10
37.7285657051
 20
5.715751296
 10
37.6389222756
 20
5.7588202062
 10
37.5557892628
 20
5.813407546
 10
37.4821714744
 20
5.8780109114
 10
37.417568109
 20
5.9526303024
 10
37.3629807692
 20
6.0372657191
 10
37.3194110577
 20
6.1289123537
 10
37.2878605769
 20
6.2230629947
 10
37.2693309295
 20
6.3207192447
 10
37.2628205128
 20
6.4213803024
 10
37.2628205128
 20
6.4213803024
 10
37.2668269231
 20
6.4985036998
 10
37.2783453526
 20
6.5781311037
 10
37.2973758013
 20
6.6592609114
 10
37.3239182692
 20
6.7423939242
 10
37.3409455128
 20
6.7854628344
 10
37.3604767628
 20
6.8310357511
 10
37.3835136218
 20
6.8781110716
 10
37.4090544872
 20
6.9276903986
 10
37.4381009615
 20
6.9797737319
 10
37.4696514423
 20
7.0333594691
 10
37.5047075321
 20
7.0894492127
 10
37.5422676282
 20
7.1475421614
 10
37.5422676282
 20
7.1475421614
 10
38.2884615385
 20
8.2883674819
  0
LWPOLYLINE
  5
E5
330
1F
100
AcDbEntity
  8
0
  6
Continuous
 62
     7
100
AcDbPolyline
 90
       68
 70
   128
 43
0.0
 10
38.0130112171
 20
6.9101623537
 10
37.9559294872
 20
6.9076583473
 10
37.9013421474
 20
6.9011479306
 10
37.8497596154
 20
6.8896295011
 10
37.801181891
 20
6.8741046614
 10
37.7551081731
 20
6.8535718088
 10
37.7115384615
 20
6.8285317447
 10
37.6709735577
 20
6.7989844691
 10
37.6329126603
 20
6.7649299819
 10
37.5988581731
 20
6.727870687
 10
37.5693108974
 20
6.6883073857
 10
37.5442708333
 20
6.6472416806
 10
37.5237379808
 20
6.6041727703
 10
37.5077123397
 20
6.559100655
 10
37.4961939103
 20
6.5120253344
 10
37.4896834936
 20
6.4634476101
 10
37.4871794872
 20
6.4123658793
 10
37.4871794872
 20
6.4123658793
 10
37.4896834936
 20
6.3617849498
 10
37.4971955128
 20
6.3137080268
 10
37.5097155449
 20
6.2666327062
 10
37.5272435897
 20
6.2220613921
 10
37.5492788462
 20
6.1789924819
 10
37.5768229167
 20
6.138427578
 10
37.6088741987
 20
6.0988642768
 10
37.6464342949
 20
6.0618049819
 10
37.6875
 20
6.0277504947
 10
37.7305689103
 20
5.9982032191
 10
37.7756410256
 20
5.973163155
 10
37.8227163462
 20
5.9531311037
 10
37.8717948718
 20
5.9371054627
 10
37.9233774038
 20
5.9255870332
 10
37.9764623397
 20
5.9190766165
 10
38.0320512821
 20
5.9165726101
 10
38.0320512821
 20
5.9165726101
 10
38.0876402244
 20
5.9190766165
 10
38.1407251603
 20
5.9255870332
 10
38.1923076923
 20
5.9371054627
 10
38.2413862179
 20
5.9531311037
 10
38.2884615385
 20
5.973163155
 10
38.3335336538
 20
5.9982032191
 10
38.3761017628
 20
6.0277504947
 10
38.4171674679
 20
6.0618049819
 10
38.4547275641
 20
6.0988642768
 10
38.4872796474
 20
6.138427578
 10
38.5143229167
 20
6.1789924819
 10
38.5368589744
 20
6.2220613921
 10
38.5543870192
 20
6.2666327062
 10
38.5669070513
 20
6.3137080268
 10
38.5744190705
 20
6.3617849498
 10
38.5769230769
 20
6.4123658793
 10
38.5769230769
 20
6.4123658793
 10
38.5744190705
 20
6.4634476101
 10
38.56640625
 20
6.5120253344
 10
38.5538862179
 20
6.559100655
 10
38.5358573718
 20
6.6041727703
 10
38.5123197115
 20
6.6472416806
 10
38.4837740385
 20
6.6883073857
 10
38.4502203526
 20
6.727870687
 10
38.4116586538
 20
6.7649299819
 10
38.3690905449
 20
6.7989844691
 10
38.3250200321
 20
6.8285317447
 10
38.2779447115
 20
6.8535718088
 10
38.2293669872
 20
6.8741046614
 10
38.1782852564
 20
6.8896295011
 10
38.1257011218
 20
6.9011479306
 10
38.0701121795
 20
6.9076583473
 10
38.0130208333
 20
6.9101623537
  0
LWPOLYLINE
  5
E6
330
1F
100
AcDbEntity
  8
0
  6
Continuous
 62
     7
100
AcDbPolyline
 90
       12
 70
   128
 43
0.0
 10
45.7044243813
 20
30.2242649178
 10
46.1666666667
 20
30.2242649178
 10
46.1666666667
 20
30.2242649178
 10
46.1666666667
 20
27.7242649178
 10
46.1666666667
 20
27.7242649178
 10
45.9423076923
 20
27.7242649178
 10
45.9423076923
 20
27.7242649178
 10
45.9423076923
 20
29.9678546614
 10
45.9423076923
 20
29.9678546614
 10
45.5576923077
 20
29.9678546614
 10
45.5576923077
 20
29.9678546614
 10
45.7044270833
 20
30.2242649178
  0
LWPOLYLINE
  5
E7
330
1F
100
AcDbEntity
  8
0
  6
Continuous
 62
     7
100
AcDbPolyline
 90
       12
 70
   128
 43
0.0
 10
47.2564101219
 20
30.2242649178
 10
48.7948717949
 20
30.2242649178
 10
48.7948717949
 20
30.2242649178
 10
47.4807692308
 20
27.6601623537
 10
47.4807692308
 20
27.6601623537
 10
47.2869591346
 20
27.7668330268
 10
47.2869591346
 20
27.7668330268
 10
48.4147636218
 20
29.9678546614
 10
48.4147636218
 20
29.9678546614
 10
47.2564102564
 20
29.9678546614
 10
47.2564102564
 20
29.9678546614
 10
47.2564102564
 20
30.2242649178
  0
LWPOLYLINE
  5
E8
330
1F
100
AcDbEntity
  8
0
  6
Continuous
 62
     7
100
AcDbPolyline
 90
       12
 70
   128
 43
0.0
 10
45.7044243813
 20
8.2242649178
 10
46.1666666667
 20
8.2242649178
 10
46.1666666667
 20
8.2242649178
 10
46.1666666667
 20
5.7242649178
 10
46.1666666667
 20
5.7242649178
 10
45.9423076923
 20
5.7242649178
 10
45.9423076923
 20
5.7242649178
 10
45.9423076923
 20
7.9678546614
 10
45.9423076923
 20
7.9678546614
 10
45.5576923077
 20
7.9678546614
 10
45.5576923077
 20
7.9678546614
 10
45.7044270833
 20
8.2242649178
  0
LWPOLYLINE
  5
E9
330
1F
100
AcDbEntity
  8
0
  6
Continuous
 62
     7
100
AcDbPolyline
 90
      113
 70
   128
 43
0.0
 10
48.3115911484
 20
7.1169932832
 10
48.3726963141
 20
7.0844411998
 10
48.429286859
 20
7.0508875139
 10
48.4813701923
 20
7.0158314242
 10
48.5294471154
 20
6.9802745332
 10
48.5735176282
 20
6.9432152383
 10
48.6130809295
 20
6.9046535396
 10
48.6481370192
 20
6.8655910396
 10
48.6791866987
 20
6.8250261357
 10
48.7062299679
 20
6.7834596293
 10
48.7297676282
 20
6.7403907191
 10
48.7497996795
 20
6.695819405
 10
48.7658253205
 20
6.6502464883
 10
48.7788461538
 20
6.6026703665
 10
48.7878605769
 20
6.5540926421
 10
48.7928685897
 20
6.5040125139
 10
48.7948717949
 20
6.4524299819
 10
48.7948717949
 20
6.4524299819
 10
48.7918669872
 20
6.3803145973
 10
48.7828525641
 20
6.3102024178
 10
48.7683293269
 20
6.2420934434
 10
48.7477964744
 20
6.1764884755
 10
48.7207532051
 20
6.1123859114
 10
48.6882011218
 20
6.051288155
 10
48.6501402244
 20
5.9916928024
 10
48.6055689103
 20
5.9346014562
 10
48.6055689103
 20
5.9346014562
 10
48.5444711538
 20
5.8704988921
 10
48.4773637821
 20
5.8144091486
 10
48.4037459936
 20
5.767333828
 10
48.3236177885
 20
5.7287721293
 10
48.2374799679
 20
5.6987240524
 10
48.1453325321
 20
5.6771895973
 10
48.0466746795
 20
5.6646695652
 10
47.9420072115
 20
5.6601623537
 10
47.9420072115
 20
5.6601623537
 10
47.8413461538
 20
5.6641687639
 10
47.7466947115
 20
5.6751863921
 10
47.6580528846
 20
5.6942168409
 10
47.5764222756
 20
5.7202585075
 10
47.5003004808
 20
5.7543129947
 10
47.4311899038
 20
5.7958795011
 10
47.3680889423
 20
5.8444572255
 10
47.3109975962
 20
5.9010477703
 10
47.2604166667
 20
5.9621455268
 10
47.2168469551
 20
6.024745687
 10
47.1802884615
 20
6.0888482511
 10
47.1497395833
 20
6.1544532191
 10
47.1262019231
 20
6.2215605909
 10
47.1096754808
 20
6.2901703665
 10
47.0996594551
 20
6.360282546
 10
47.0961538462
 20
6.4318971293
 10
47.0961538462
 20
6.4318971293
 10
47.0981570513
 20
6.4844812639
 10
47.1036658654
 20
6.5355629947
 10
47.1126802885
 20
6.5851423216
 10
47.1252003205
 20
6.633720046
 10
47.1417267628
 20
6.6807953665
 10
47.1617588141
 20
6.7263682832
 10
47.1852964744
 20
6.7709395973
 10
47.2123397436
 20
6.8140085075
 10
47.2438902244
 20
6.8560758152
 10
47.2794471154
 20
6.8966407191
 10
47.3200120192
 20
6.9362040203
 10
47.3650841346
 20
6.9747657191
 10
47.4141626603
 20
7.0123258152
 10
47.4682491987
 20
7.0483835075
 10
47.5263421474
 20
7.0834395973
 10
47.589443109
 20
7.1169932832
 10
47.589443109
 20
7.1169932832
 10
47.5038060897
 20
7.1665726101
 10
47.4296875
 20
7.2221615524
 10
47.3670873397
 20
7.2827585075
 10
47.3155048077
 20
7.349365078
 10
47.2754407051
 20
7.4199780588
 10
47.2473958333
 20
7.493095046
 10
47.2298677885
 20
7.5687160396
 10
47.2243589744
 20
7.6468410396
 10
47.2243589744
 20
7.6468410396
 10
47.2303685897
 20
7.7264684434
 10
47.2483974359
 20
7.8050942447
 10
47.2789463141
 20
7.8832192447
 10
47.3210136218
 20
7.9598418409
 10
47.3740985577
 20
8.0324580268
 10
47.4361979167
 20
8.0965605909
 10
47.5073116987
 20
8.1526503344
 10
47.5879407051
 20
8.2007272575
 10
47.6750801282
 20
8.2392889562
 10
47.7657251603
 20
8.2663322255
 10
47.859375
 20
8.2828586678
 10
47.95703125
 20
8.2883674819
 10
47.95703125
 20
8.2883674819
 10
48.0521834936
 20
8.2828586678
 10
48.1433293269
 20
8.2663322255
 10
48.2309695513
 20
8.2382873537
 10
48.3151041667
 20
8.199725655
 10
48.3932291667
 20
8.1516487319
 10
48.4618389423
 20
8.095058187
 10
48.5219350962
 20
8.0309556229
 10
48.5730168269
 20
7.9588402383
 10
48.6140825321
 20
7.8822176421
 10
48.6431290064
 20
7.8030910396
 10
48.6606570513
 20
7.7224620332
 10
48.6666666667
 20
7.6398298216
 10
48.6666666667
 20
7.6398298216
 10
48.6611578526
 20
7.5587000139
 10
48.6446314103
 20
7.4820774178
 10
48.6165865385
 20
7.4099620332
 10
48.5780248397
 20
7.3423538601
 10
48.5279447115
 20
7.2792528986
 10
48.4673477564
 20
7.2211599498
 10
48.3947315705
 20
7.1665726101
 10
48.3115985577
 20
7.1169932832
  0
LWPOLYLINE
  5
EA
330
1F
100
AcDbEntity
  8
0
  6
Continuous
 62
     7
100
AcDbPolyline
 90
       64
 70
   128
 43
0.0
 10
47.9444861412
 20
8.0319572255
 10
47.8919270833
 20
8.0299540203
 10
47.8418469551
 20
8.0249460075
 10
47.7942708333
 20
8.0159315844
 10
47.7486979167
 20
8.0034115524
 10
47.7051282051
 20
7.9868851101
 10
47.6645633013
 20
7.9673538601
 10
47.6260016026
 20
7.9438161998
 10
47.589443109
 20
7.9167729306
 10
47.5563902244
 20
7.887225655
 10
47.5278445513
 20
7.8566767768
 10
47.5038060897
 20
7.8246254947
 10
47.4837740385
 20
7.7910718088
 10
47.46875
 20
7.7560157191
 10
47.4577323718
 20
7.7199580268
 10
47.4507211538
 20
7.6823979306
 10
47.4487179487
 20
7.6433354306
 10
47.4487179487
 20
7.6433354306
 10
47.4512219551
 20
7.6042729306
 10
47.4582331731
 20
7.5667128344
 10
47.4697516026
 20
7.5296535396
 10
47.4867788462
 20
7.4935958473
 10
47.5078125
 20
7.4585397575
 10
47.5338541667
 20
7.4239844691
 10
47.5644030449
 20
7.3909315844
 10
47.5999599359
 20
7.3583795011
 10
47.6385216346
 20
7.3283314242
 10
47.6790865385
 20
7.3022897575
 10
47.7206530449
 20
7.2807553024
 10
47.7642227564
 20
7.2627264562
 10
47.8092948718
 20
7.2487040203
 10
47.855869391
 20
7.2386879947
 10
47.9039463141
 20
7.2326783793
 10
47.953525641
 20
7.2306751742
 10
47.953525641
 20
7.2306751742
 10
48.0171274038
 20
7.2341807832
 10
48.0792267628
 20
7.2451984114
 10
48.1393229167
 20
7.2632272575
 10
48.1979166667
 20
7.2882673216
 10
48.2525040064
 20
7.3198178024
 10
48.3005809295
 20
7.3568770973
 10
48.3421474359
 20
7.398944405
 10
48.3777043269
 20
7.4465205268
 10
48.4057491987
 20
7.4971014562
 10
48.4262820513
 20
7.5471815844
 10
48.4383012821
 20
7.5977625139
 10
48.4423076923
 20
7.6483434434
 10
48.4423076923
 20
7.6483434434
 10
48.4403044872
 20
7.6839003344
 10
48.4342948718
 20
7.7184556229
 10
48.4242788462
 20
7.7520093088
 10
48.4102564103
 20
7.7855629947
 10
48.3922275641
 20
7.818115078
 10
48.370693109
 20
7.8496655588
 10
48.3446514423
 20
7.8807152383
 10
48.3146033654
 20
7.9112641165
 10
48.2810496795
 20
7.9393089883
 10
48.2439903846
 20
7.9638482511
 10
48.2029246795
 20
7.984881905
 10
48.1583533654
 20
8.0019091486
 10
48.1102764423
 20
8.0149299819
 10
48.0586939103
 20
8.0244452062
 10
48.0036057692
 20
8.0299540203
 10
47.9445112179
 20
8.0319572255
  0
LWPOLYLINE
  5
EB
330
1F
100
AcDbEntity
  8
0
  6
Continuous
 62
     7
100
AcDbPolyline
 90
       64
 70
   128
 43
0.0
 10
47.9590296745
 20
6.9742649178
 10
47.8924278846
 20
6.9717609114
 10
47.8288261218
 20
6.9637480909
 10
47.7677283654
 20
6.9512280588
 10
47.7096354167
 20
6.9331992127
 10
47.6540464744
 20
6.9096615524
 10
47.6009615385
 20
6.8811158793
 10
47.5508814103
 20
6.8475621934
 10
47.5038060897
 20
6.8090004947
 10
47.4607371795
 20
6.766933187
 10
47.4236778846
 20
6.7233634755
 10
47.3921274038
 20
6.6777905588
 10
47.3665865385
 20
6.6307152383
 10
47.3460536859
 20
6.5816367127
 10
47.33203125
 20
6.5310557832
 10
47.3235176282
 20
6.4784716486
 10
47.3205128205
 20
6.4243851101
 10
47.3205128205
 20
6.4243851101
 10
47.3255208333
 20
6.3572777383
 10
47.3400440705
 20
6.2926743729
 10
47.3645833333
 20
6.2290726101
 10
47.3986378205
 20
6.1679748537
 10
47.4417067308
 20
6.1108835075
 10
47.4927884615
 20
6.0613041806
 10
47.5513822115
 20
6.0177344691
 10
47.6179887821
 20
5.9816767768
 10
47.6916065705
 20
5.9531311037
 10
47.7702323718
 20
5.9330990524
 10
47.8548677885
 20
5.9205790203
 10
47.9445112179
 20
5.9165726101
 10
47.9445112179
 20
5.9165726101
 10
48.0146233974
 20
5.9190766165
 10
48.0807291667
 20
5.9265886357
 10
48.1433293269
 20
5.9391086678
 10
48.2019230769
 20
5.9566367127
 10
48.2570112179
 20
5.9786719691
 10
48.30859375
 20
6.0062160396
 10
48.3566706731
 20
6.0382673216
 10
48.4007411859
 20
6.0758274178
 10
48.4403044872
 20
6.1163923216
 10
48.4748597756
 20
6.1589604306
 10
48.5044070513
 20
6.2030309434
 10
48.5279447115
 20
6.2486038601
 10
48.546474359
 20
6.2956791806
 10
48.5599959936
 20
6.3447577062
 10
48.5680088141
 20
6.3953386357
 10
48.5705128205
 20
6.4479227703
 10
48.5705128205
 20
6.4479227703
 10
48.5675080128
 20
6.4990045011
 10
48.5594951923
 20
6.5480830268
 10
48.5454727564
 20
6.5961599498
 10
48.5259415064
 20
6.6427344691
 10
48.500400641
 20
6.6878065844
 10
48.4698517628
 20
6.731376296
 10
48.4332932692
 20
6.7734436037
 10
48.3912259615
 20
6.8140085075
 10
48.3451522436
 20
6.8515686037
 10
48.2970753205
 20
6.884120687
 10
48.246494391
 20
6.9116647575
 10
48.1934094551
 20
6.9342008152
 10
48.1383213141
 20
6.9517288601
 10
48.0807291667
 20
6.9642488921
 10
48.0211338141
 20
6.9717609114
 10
47.9590344551
 20
6.9742649178
  0
LWPOLYLINE
  5
EC
330
1F
100
AcDbEntity
  8
0
  6
Continuous
 62
     7
100
AcDbPolyline
 90
       12
 70
   128
 43
0.0
 10
54.2948544025
 20
30.2242649178
 10
55.8333333333
 20
30.2242649178
 10
55.8333333333
 20
30.2242649178
 10
54.5192307692
 20
27.6601623537
 10
54.5192307692
 20
27.6601623537
 10
54.3254206731
 20
27.7668330268
 10
54.3254206731
 20
27.7668330268
 10
55.4532251603
 20
29.9678546614
 10
55.4532251603
 20
29.9678546614
 10
54.2948717949
 20
29.9678546614
 10
54.2948717949
 20
29.9678546614
 10
54.2948717949
 20
30.2242649178
  0
LWPOLYLINE
  5
ED
330
1F
100
AcDbEntity
  8
0
  6
Continuous
 62
     7
100
AcDbPolyline
 90
      113
 70
   128
 43
0.0
 10
55.350035429
 20
7.1169932832
 10
55.4111578526
 20
7.0844411998
 10
55.4677483974
 20
7.0508875139
 10
55.5198317308
 20
7.0158314242
 10
55.5679086538
 20
6.9802745332
 10
55.6119791667
 20
6.9432152383
 10
55.6515424679
 20
6.9046535396
 10
55.6865985577
 20
6.8655910396
 10
55.7176482372
 20
6.8250261357
 10
55.7446915064
 20
6.7834596293
 10
55.7682291667
 20
6.7403907191
 10
55.7882612179
 20
6.695819405
 10
55.804286859
 20
6.6502464883
 10
55.8173076923
 20
6.6026703665
 10
55.8263221154
 20
6.5540926421
 10
55.8313301282
 20
6.5040125139
 10
55.8333333333
 20
6.4524299819
 10
55.8333333333
 20
6.4524299819
 10
55.8303285256
 20
6.3803145973
 10
55.8213141026
 20
6.3102024178
 10
55.8067908654
 20
6.2420934434
 10
55.7862580128
 20
6.1764884755
 10
55.7592147436
 20
6.1123859114
 10
55.7266626603
 20
6.051288155
 10
55.6886017628
 20
5.9916928024
 10
55.6440304487
 20
5.9346014562
 10
55.6440304487
 20
5.9346014562
 10
55.5829326923
 20
5.8704988921
 10
55.5158253205
 20
5.8144091486
 10
55.4422075321
 20
5.767333828
 10
55.3620793269
 20
5.7287721293
 10
55.2759415064
 20
5.6987240524
 10
55.1837940705
 20
5.6771895973
 10
55.0851362179
 20
5.6646695652
 10
54.98046875
 20
5.6601623537
 10
54.98046875
 20
5.6601623537
 10
54.8798076923
 20
5.6641687639
 10
54.78515625
 20
5.6751863921
 10
54.6965144231
 20
5.6942168409
 10
54.6148838141
 20
5.7202585075
 10
54.5387620192
 20
5.7543129947
 10
54.4696514423
 20
5.7958795011
 10
54.4065504808
 20
5.8444572255
 10
54.3494591346
 20
5.9010477703
 10
54.2988782051
 20
5.9621455268
 10
54.2553084936
 20
6.024745687
 10
54.21875
 20
6.0888482511
 10
54.1882011218
 20
6.1544532191
 10
54.1646634615
 20
6.2215605909
 10
54.1481370192
 20
6.2901703665
 10
54.1381209936
 20
6.360282546
 10
54.1346153846
 20
6.4318971293
 10
54.1346153846
 20
6.4318971293
 10
54.1366185897
 20
6.4844812639
 10
54.1421274038
 20
6.5355629947
 10
54.1511418269
 20
6.5851423216
 10
54.163661859
 20
6.633720046
 10
54.1801883013
 20
6.6807953665
 10
54.2002203526
 20
6.7263682832
 10
54.2237580128
 20
6.7709395973
 10
54.2508012821
 20
6.8140085075
 10
54.2823517628
 20
6.8560758152
 10
54.3179086538
 20
6.8966407191
 10
54.3584735577
 20
6.9362040203
 10
54.4035456731
 20
6.9747657191
 10
54.4526241987
 20
7.0123258152
 10
54.5067107372
 20
7.0483835075
 10
54.5648036859
 20
7.0834395973
 10
54.6279046474
 20
7.1169932832
 10
54.6279046474
 20
7.1169932832
 10
54.5422676282
 20
7.1665726101
 10
54.4681490385
 20
7.2221615524
 10
54.4055488782
 20
7.2827585075
 10
54.3539663462
 20
7.349365078
 10
54.3139022436
 20
7.4199780588
 10
54.2858573718
 20
7.493095046
 10
54.2683293269
 20
7.5687160396
 10
54.2628205128
 20
7.6468410396
 10
54.2628205128
 20
7.6468410396
 10
54.2688301282
 20
7.7264684434
 10
54.2868589744
 20
7.8050942447
 10
54.3174078526
 20
7.8832192447
 10
54.3594751603
 20
7.9598418409
 10
54.4125600962
 20
8.0324580268
 10
54.4746594551
 20
8.0965605909
 10
54.5457732372
 20
8.1526503344
 10
54.6264022436
 20
8.2007272575
 10
54.7135416667
 20
8.2392889562
 10
54.8041866987
 20
8.2663322255
 10
54.8978365385
 20
8.2828586678
 10
54.9954927885
 20
8.2883674819
 10
54.9954927885
 20
8.2883674819
 10
55.0906450321
 20
8.2828586678
 10
55.1817908654
 20
8.2663322255
 10
55.2694310897
 20
8.2382873537
 10
55.3535657051
 20
8.199725655
 10
55.4316907051
 20
8.1516487319
 10
55.5003004808
 20
8.095058187
 10
55.5603966346
 20
8.0309556229
 10
55.6114783654
 20
7.9588402383
 10
55.6525440705
 20
7.8822176421
 10
55.6815905449
 20
7.8030910396
 10
55.6991185897
 20
7.7224620332
 10
55.7051282051
 20
7.6398298216
 10
55.7051282051
 20
7.6398298216
 10
55.699619391
 20
7.5587000139
 10
55.6830929487
 20
7.4820774178
 10
55.6550480769
 20
7.4099620332
 10
55.6164863782
 20
7.3423538601
 10
55.56640625
 20
7.2792528986
 10
55.5058092949
 20
7.2211599498
 10
55.433193109
 20
7.1665726101
 10
55.3500600962
 20
7.1169932832
  0
LWPOLYLINE
  5
EE
330
1F
100
AcDbEntity
  8
0
  6
Continuous
 62
     7
100
AcDbPolyline
 90
       64
 70
   128
 43
0.0
 10
54.9829602242
 20
8.0319572255
 10
54.9303886218
 20
8.0299540203
 10
54.8803084936
 20
8.0249460075
 10
54.8327323718
 20
8.0159315844
 10
54.7871594551
 20
8.0034115524
 10
54.7435897436
 20
7.9868851101
 10
54.7030248397
 20
7.9673538601
 10
54.664463141
 20
7.9438161998
 10
54.6279046474
 20
7.9167729306
 10
54.5948517628
 20
7.887225655
 10
54.5663060897
 20
7.8566767768
 10
54.5422676282
 20
7.8246254947
 10
54.5222355769
 20
7.7910718088
 10
54.5072115385
 20
7.7560157191
 10
54.4961939103
 20
7.7199580268
 10
54.4891826923
 20
7.6823979306
 10
54.4871794872
 20
7.6433354306
 10
54.4871794872
 20
7.6433354306
 10
54.4896834936
 20
7.6042729306
 10
54.4966947115
 20
7.5667128344
 10
54.508213141
 20
7.5296535396
 10
54.5252403846
 20
7.4935958473
 10
54.5462740385
 20
7.4585397575
 10
54.5723157051
 20
7.4239844691
 10
54.6028645833
 20
7.3909315844
 10
54.6384214744
 20
7.3583795011
 10
54.6769831731
 20
7.3283314242
 10
54.7175480769
 20
7.3022897575
 10
54.7591145833
 20
7.2807553024
 10
54.8026842949
 20
7.2627264562
 10
54.8477564103
 20
7.2487040203
 10
54.8943309295
 20
7.2386879947
 10
54.9424078526
 20
7.2326783793
 10
54.9919871795
 20
7.2306751742
 10
54.9919871795
 20
7.2306751742
 10
55.0555889423
 20
7.2341807832
 10
55.1176883013
 20
7.2451984114
 10
55.1777844551
 20
7.2632272575
 10
55.2363782051
 20
7.2882673216
 10
55.2909655449
 20
7.3198178024
 10
55.3390424679
 20
7.3568770973
 10
55.3806089744
 20
7.398944405
 10
55.4161658654
 20
7.4465205268
 10
55.4442107372
 20
7.4971014562
 10
55.4647435897
 20
7.5471815844
 10
55.4767628205
 20
7.5977625139
 10
55.4807692308
 20
7.6483434434
 10
55.4807692308
 20
7.6483434434
 10
55.4787660256
 20
7.6839003344
 10
55.4727564103
 20
7.7184556229
 10
55.4627403846
 20
7.7520093088
 10
55.4487179487
 20
7.7855629947
 10
55.4306891026
 20
7.818115078
 10
55.4091546474
 20
7.8496655588
 10
55.3831129808
 20
7.8807152383
 10
55.3530649038
 20
7.9112641165
 10
55.3195112179
 20
7.9393089883
 10
55.2824519231
 20
7.9638482511
 10
55.2413862179
 20
7.984881905
 10
55.1968149038
 20
8.0019091486
 10
55.1487379808
 20
8.0149299819
 10
55.0971554487
 20
8.0244452062
 10
55.0420673077
 20
8.0299540203
 10
54.9829727564
 20
8.0319572255
  0
LWPOLYLINE
  5
EF
330
1F
100
AcDbEntity
  8
0
  6
Continuous
 62
     7
100
AcDbPolyline
 90
       64
 70
   128
 43
0.0
 10
54.9974739552
 20
6.9742649178
 10
54.9308894231
 20
6.9717609114
 10
54.8672876603
 20
6.9637480909
 10
54.8061899038
 20
6.9512280588
 10
54.7480969551
 20
6.9331992127
 10
54.6925080128
 20
6.9096615524
 10
54.6394230769
 20
6.8811158793
 10
54.5893429487
 20
6.8475621934
 10
54.5422676282
 20
6.8090004947
 10
54.4991987179
 20
6.766933187
 10
54.4621394231
 20
6.7233634755
 10
54.4305889423
 20
6.6777905588
 10
54.4050480769
 20
6.6307152383
 10
54.3845152244
 20
6.5816367127
 10
54.3704927885
 20
6.5310557832
 10
54.3619791667
 20
6.4784716486
 10
54.358974359
 20
6.4243851101
 10
54.358974359
 20
6.4243851101
 10
54.3639823718
 20
6.3572777383
 10
54.378505609
 20
6.2926743729
 10
54.4030448718
 20
6.2290726101
 10
54.437099359
 20
6.1679748537
 10
54.4801682692
 20
6.1108835075
 10
54.53125
 20
6.0613041806
 10
54.58984375
 20
6.0177344691
 10
54.6564503205
 20
5.9816767768
 10
54.730068109
 20
5.9531311037
 10
54.8086939103
 20
5.9330990524
 10
54.8933293269
 20
5.9205790203
 10
54.9829727564
 20
5.9165726101
 10
54.9829727564
 20
5.9165726101
 10
55.0530849359
 20
5.9190766165
 10
55.1191907051
 20
5.9265886357
 10
55.1817908654
 20
5.9391086678
 10
55.2403846154
 20
5.9566367127
 10
55.2954727564
 20
5.9786719691
 10
55.3470552885
 20
6.0062160396
 10
55.3951322115
 20
6.0382673216
 10
55.4392027244
 20
6.0758274178
 10
55.4787660256
 20
6.1163923216
 10
55.5133213141
 20
6.1589604306
 10
55.5428685897
 20
6.2030309434
 10
55.56640625
 20
6.2486038601
 10
55.5849358974
 20
6.2956791806
 10
55.5984575321
 20
6.3447577062
 10
55.6064703526
 20
6.3953386357
 10
55.608974359
 20
6.4479227703
 10
55.608974359
 20
6.4479227703
 10
55.6059695513
 20
6.4990045011
 10
55.5979567308
 20
6.5480830268
 10
55.5839342949
 20
6.5961599498
 10
55.5644030449
 20
6.6427344691
 10
55.5388621795
 20
6.6878065844
 10
55.5083133013
 20
6.731376296
 10
55.4717548077
 20
6.7734436037
 10
55.4296875
 20
6.8140085075
 10
55.3836137821
 20
6.8515686037
 10
55.335536859
 20
6.884120687
 10
55.2849559295
 20
6.9116647575
 10
55.2318709936
 20
6.9342008152
 10
55.1767828526
 20
6.9517288601
 10
55.1191907051
 20
6.9642488921
 10
55.0595953526
 20
6.9717609114
 10
54.9974959936
 20
6.9742649178
  0
LWPOLYLINE
  5
F0
330
1F
100
AcDbEntity
  8
0
  6
Continuous
 62
     7
100
AcDbPolyline
 90
       12
 70
   128
 43
0.0
 10
62.7043843269
 20
30.2242649178
 10
63.1666666667
 20
30.2242649178
 10
63.1666666667
 20
30.2242649178
 10
63.1666666667
 20
27.7242649178
 10
63.1666666667
 20
27.7242649178
 10
62.9423076923
 20
27.7242649178
 10
62.9423076923
 20
27.7242649178
 10
62.9423076923
 20
29.9678546614
 10
62.9423076923
 20
29.9678546614
 10
62.5576923077
 20
29.9678546614
 10
62.5576923077
 20
29.9678546614
 10
62.7044270833
 20
30.2242649178
  0
LWPOLYLINE
  5
F1
330
1F
100
AcDbEntity
  8
0
  6
Continuous
 62
     7
100
AcDbPolyline
 90
       65
 70
   128
 43
0.0
 10
64.6409988403
 20
27.6601623537
 10
64.4617387821
 20
27.7848618729
 10
64.4617387821
 20
27.7848618729
 10
65.1568509615
 20
28.8009876742
 10
65.1568509615
 20
28.8009876742
 10
65.0236378205
 20
28.7869652383
 10
64.8939302885
 20
28.7819572255
 10
64.8939302885
 20
28.7819572255
 10
64.8153044872
 20
28.7854628344
 10
64.7401842949
 20
28.7954788601
 10
64.667568109
 20
28.8120053024
 10
64.5984575321
 20
28.8355429627
 10
64.5318509615
 20
28.8655910396
 10
64.46875
 20
28.9021495332
 10
64.4081530449
 20
28.9457192447
 10
64.3510616987
 20
28.9957993729
 10
64.2989783654
 20
29.0508875139
 10
64.2534054487
 20
29.1089804627
 10
64.2153445513
 20
29.1700782191
 10
64.1837940705
 20
29.2346815844
 10
64.159755609
 20
29.3017889562
 10
64.1422275641
 20
29.372401937
 10
64.1317107372
 20
29.4460197255
 10
64.1282051282
 20
29.5226423216
 10
64.1282051282
 20
29.5226423216
 10
64.1347155449
 20
29.6273097896
 10
64.1537459936
 20
29.7264684434
 10
64.1857972756
 20
29.8206190844
 10
64.2303685897
 20
29.9092609114
 10
64.2869591346
 20
29.9913923216
 10
64.3540665064
 20
30.0645093088
 10
64.4321915064
 20
30.1291126742
 10
64.5208333333
 20
30.1852024178
 10
64.6164863782
 20
30.2302745332
 10
64.7156450321
 20
30.2628266165
 10
64.8183092949
 20
30.2818570652
 10
64.9239783654
 20
30.2883674819
 10
64.9239783654
 20
30.2883674819
 10
65.0276442308
 20
30.2818570652
 10
65.1273036859
 20
30.2633274178
 10
65.2229567308
 20
30.231776937
 10
65.3146033654
 20
30.1877064242
 10
65.3997395833
 20
30.1321174819
 10
65.4748597756
 20
30.0670133152
 10
65.5404647436
 20
29.9913923216
 10
65.5965544872
 20
29.9057553024
 10
65.6411258013
 20
29.8141086678
 10
65.6731770833
 20
29.7189564242
 10
65.6922075321
 20
29.6213001742
 10
65.6987179487
 20
29.5201383152
 10
65.6987179487
 20
29.5201383152
 10
65.6947115385
 20
29.4415125139
 10
65.683193109
 20
29.3613843088
 10
65.6631610577
 20
29.2787520973
 10
65.6356169872
 20
29.1946174819
 10
65.6185897436
 20
29.1510477703
 10
65.598056891
 20
29.1054748537
 10
65.5745192308
 20
29.0573979306
 10
65.5479767628
 20
29.0078186037
 10
65.5184294872
 20
28.9552344691
 10
65.4858774038
 20
28.9011479306
 10
65.4498197115
 20
28.8445573857
 10
65.4107572115
 20
28.7859636357
 10
65.4107572115
 20
28.7859636357
 10
64.641025641
 20
27.6601623537
  0
LWPOLYLINE
  5
F2
330
1F
100
AcDbEntity
  8
0
  6
Continuous
 62
     7
100
AcDbPolyline
 90
       68
 70
   128
 43
0.0
 10
64.9354457855
 20
29.0383674819
 10
64.9950921474
 20
29.0408714883
 10
65.051181891
 20
29.047381905
 10
65.1047676282
 20
29.0589003344
 10
65.1548477564
 20
29.0749259755
 10
65.2024238782
 20
29.0949580268
 10
65.2469951923
 20
29.1199980909
 10
65.2880608974
 20
29.1495453665
 10
65.3266225962
 20
29.1835998537
 10
65.3611778846
 20
29.2211599498
 10
65.3912259615
 20
29.2602224498
 10
65.4167668269
 20
29.301288155
 10
65.4372996795
 20
29.3443570652
 10
65.4538261218
 20
29.3894291806
 10
65.4653445513
 20
29.4360036998
 10
65.4718549679
 20
29.4845814242
 10
65.4743589744
 20
29.5351623537
 10
65.4743589744
 20
29.5351623537
 10
65.4718549679
 20
29.5857432832
 10
65.4643429487
 20
29.6343210075
 10
65.4513221154
 20
29.6808955268
 10
65.4332932692
 20
29.7259676421
 10
65.4102564103
 20
29.7685357511
 10
65.3822115385
 20
29.8096014562
 10
65.3486578526
 20
29.8491647575
 10
65.3100961538
 20
29.8862240524
 10
65.2680288462
 20
29.9202785396
 10
65.2239583333
 20
29.9498258152
 10
65.1773838141
 20
29.9748658793
 10
65.1288060897
 20
29.9953987319
 10
65.0782251603
 20
30.0114243729
 10
65.0251402244
 20
30.0229428024
 10
64.9700520833
 20
30.0294532191
 10
64.9124599359
 20
30.0319572255
 10
64.9124599359
 20
30.0319572255
 10
64.8553685897
 20
30.0294532191
 10
64.80078125
 20
30.0229428024
 10
64.7481971154
 20
30.0114243729
 10
64.6976161859
 20
29.9953987319
 10
64.6490384615
 20
29.9748658793
 10
64.6024639423
 20
29.9498258152
 10
64.5583934295
 20
29.9202785396
 10
64.5163261218
 20
29.8862240524
 10
64.4777644231
 20
29.8491647575
 10
64.4447115385
 20
29.8096014562
 10
64.4166666667
 20
29.7685357511
 10
64.3936298077
 20
29.7259676421
 10
64.3756009615
 20
29.6808955268
 10
64.3625801282
 20
29.6343210075
 10
64.355068109
 20
29.5857432832
 10
64.3525641026
 20
29.5351623537
 10
64.3525641026
 20
29.5351623537
 10
64.355068109
 20
29.4845814242
 10
64.3630809295
 20
29.4360036998
 10
64.3766025641
 20
29.3894291806
 10
64.3951322115
 20
29.3443570652
 10
64.4191706731
 20
29.301288155
 10
64.4487179487
 20
29.2602224498
 10
64.4832732372
 20
29.2211599498
 10
64.5233373397
 20
29.1835998537
 10
64.5669070513
 20
29.1495453665
 10
64.6129807692
 20
29.1199980909
 10
64.6615584936
 20
29.0949580268
 10
64.7116386218
 20
29.0749259755
 10
64.7642227564
 20
29.0589003344
 10
64.8193108974
 20
29.047381905
 10
64.8764022436
 20
29.0408714883
 10
64.9354967949
 20
29.0383674819
  0
LWPOLYLINE
  5
F3
330
1F
100
AcDbEntity
  8
0
  6
Continuous
 62
     7
100
AcDbPolyline
 90
      106
 70
   128
 43
0.0
 10
62.4935626984
 20
7.4550341486
 10
62.2692307692
 20
7.4550341486
 10
62.2692307692
 20
7.4550341486
 10
62.2752403846
 20
7.5441767768
 10
62.2882612179
 20
7.6293129947
 10
62.3077924679
 20
7.7099420011
 10
62.3348357372
 20
7.7870653986
 10
62.3683894231
 20
7.8596815844
 10
62.4089543269
 20
7.9287921614
 10
62.4565304487
 20
7.9933955268
 10
62.5111177885
 20
8.0539924819
 10
62.570713141
 20
8.1090806229
 10
62.6343149038
 20
8.1566567447
 10
62.7009214744
 20
8.1967208473
 10
62.7705328526
 20
8.2297737319
 10
62.844150641
 20
8.2553145973
 10
62.9207732372
 20
8.2738442447
 10
63.0009014423
 20
8.2848618729
 10
63.0845352564
 20
8.2883674819
 10
63.0845352564
 20
8.2883674819
 10
63.1666666667
 20
8.2848618729
 10
63.2452924679
 20
8.274345046
 10
63.3194110577
 20
8.2573178024
 10
63.3900240385
 20
8.2332793409
 10
63.4561298077
 20
8.2017288601
 10
63.5182291667
 20
8.1636679627
 10
63.5768229167
 20
8.1190966486
 10
63.6309094551
 20
8.0670133152
 10
63.6799879808
 20
8.0104227703
 10
63.7220552885
 20
7.9513282191
 10
63.7581129808
 20
7.8897296614
 10
63.7876602564
 20
7.8261278986
 10
63.8101963141
 20
7.759521328
 10
63.8267227564
 20
7.6904107511
 10
63.8362379808
 20
7.6192969691
 10
63.8397435897
 20
7.5451783793
 10
63.8397435897
 20
7.5451783793
 10
63.8332331731
 20
7.4410117127
 10
63.8137019231
 20
7.340350655
 10
63.781650641
 20
7.242694405
 10
63.7360777244
 20
7.1485437639
 10
63.70703125
 20
7.1004668409
 10
63.6724759615
 20
7.0478827062
 10
63.6314102564
 20
6.9912921614
 10
63.5843349359
 20
6.9311960075
 10
63.5307491987
 20
6.8660918409
 10
63.4716546474
 20
6.7974820652
 10
63.4060496795
 20
6.7248658793
 10
63.3344350962
 20
6.6477424819
 10
63.3344350962
 20
6.6477424819
 10
62.7089342949
 20
5.9806751742
 10
62.7089342949
 20
5.9806751742
 10
63.8717948718
 20
5.9806751742
 10
63.8717948718
 20
5.9806751742
 10
63.8717948718
 20
5.7242649178
 10
63.8717948718
 20
5.7242649178
 10
62.1730769231
 20
5.7242649178
 10
62.1730769231
 20
5.7242649178
 10
63.1426282051
 20
6.7589203665
 10
63.1426282051
 20
6.7589203665
 10
63.2132411859
 20
6.8330389562
 10
63.27734375
 20
6.9021495332
 10
63.3349358974
 20
6.9662520973
 10
63.3860176282
 20
7.0253466486
 10
63.4305889423
 20
7.0799339883
 10
63.469150641
 20
7.1290125139
 10
63.5007011218
 20
7.173583828
 10
63.5262419872
 20
7.2131471293
 10
63.5653044872
 20
7.2882673216
 10
63.593349359
 20
7.3653907191
 10
63.6098758013
 20
7.4440165203
 10
63.6153846154
 20
7.525146328
 10
63.6153846154
 20
7.525146328
 10
63.612880609
 20
7.5762280588
 10
63.6053685897
 20
7.6253065844
 10
63.593349359
 20
7.672381905
 10
63.5763221154
 20
7.7179548216
 10
63.5537860577
 20
7.7620253344
 10
63.5267427885
 20
7.8035918409
 10
63.4951923077
 20
7.8436559434
 10
63.4581330128
 20
7.8822176421
 10
63.417568109
 20
7.9172737319
 10
63.375
 20
7.9478226101
 10
63.3304286859
 20
7.9733634755
 10
63.2833533654
 20
7.9943971293
 10
63.2337740385
 20
8.0109235716
 10
63.1826923077
 20
8.0224420011
 10
63.1291065705
 20
8.0294532191
 10
63.0730168269
 20
8.0319572255
 10
63.0730168269
 20
8.0319572255
 10
63.0144230769
 20
8.0294532191
 10
62.9583333333
 20
8.0224420011
 10
62.9047475962
 20
8.0104227703
 10
62.8536658654
 20
7.993896328
 10
62.805088141
 20
7.9728626742
 10
62.7590144231
 20
7.9468210075
 10
62.7154447115
 20
7.915771328
 10
62.6743790064
 20
7.880214437
 10
62.6368189103
 20
7.8406511357
 10
62.6037660256
 20
7.7970814242
 10
62.5747195513
 20
7.7495053024
 10
62.5496794872
 20
7.6984235716
 10
62.5291466346
 20
7.6433354306
 10
62.5131209936
 20
7.5842408793
 10
62.5011017628
 20
7.5216407191
 10
62.4935897436
 20
7.4550341486
  0
LWPOLYLINE
  5
F4
330
1F
100
AcDbEntity
  8
0
  6
Continuous
 62
     7
100
AcDbPolyline
 90
      100
 70
   128
 43
0.0
 10
64.0961527824
 20
6.9732633152
 10
64.09765625
 20
7.0934556229
 10
64.1026642628
 20
7.2066367127
 10
64.1111778846
 20
7.3133073857
 10
64.1226963141
 20
7.4124660396
 10
64.1372195513
 20
7.5046134755
 10
64.1557491987
 20
7.5897496934
 10
64.1772836538
 20
7.6678746934
 10
64.2018229167
 20
7.7389884755
 10
64.2293669872
 20
7.8045934434
 10
64.2599158654
 20
7.8661920011
 10
64.2934695513
 20
7.9232833473
 10
64.3295272436
 20
7.9768690844
 10
64.3680889423
 20
8.0259476101
 10
64.4091546474
 20
8.0710197255
 10
64.4532251603
 20
8.1115846293
 10
64.5003004808
 20
8.1486439242
 10
64.5493790064
 20
8.1811960075
 10
64.5999599359
 20
8.2097416806
 10
64.6515424679
 20
8.2337801421
 10
64.7051282051
 20
8.2533113921
 10
64.7597155449
 20
8.2688362319
 10
64.8158052885
 20
8.2798538601
 10
64.8728966346
 20
8.2863642768
 10
64.9319911859
 20
8.2883674819
 10
64.9319911859
 20
8.2883674819
 10
64.9915865385
 20
8.2863642768
 10
65.0501802885
 20
8.2798538601
 10
65.1067708333
 20
8.2688362319
 10
65.1623597756
 20
8.2533113921
 10
65.2164463141
 20
8.2337801421
 10
65.2690304487
 20
8.2097416806
 10
65.3206129808
 20
8.1811960075
 10
65.3701923077
 20
8.1481431229
 10
65.4177684295
 20
8.111083828
 10
65.4633413462
 20
8.0690165203
 10
65.5059094551
 20
8.0229428024
 10
65.5459735577
 20
7.9728626742
 10
65.5835336538
 20
7.9177745332
 10
65.6185897436
 20
7.8586799819
 10
65.6506410256
 20
7.7950782191
 10
65.6806891026
 20
7.7269692447
 10
65.7072315705
 20
7.6538522575
 10
65.7307692308
 20
7.574725655
 10
65.7503004808
 20
7.489589437
 10
65.7663261218
 20
7.3984436037
 10
65.7788461538
 20
7.301288155
 10
65.7878605769
 20
7.1976222896
 10
65.7928685897
 20
7.0884476101
 10
65.7948717949
 20
6.9732633152
 10
65.7948717949
 20
6.9732633152
 10
65.7928685897
 20
6.8585798216
 10
65.7878605769
 20
6.7499059434
 10
65.7788461538
 20
6.6467408793
 10
65.7668269231
 20
6.5500862319
 10
65.7508012821
 20
6.4594411998
 10
65.7312700321
 20
6.3748057832
 10
65.7087339744
 20
6.2956791806
 10
65.6821915064
 20
6.2230629947
 10
65.6526442308
 20
6.1554548216
 10
65.6205929487
 20
6.0923538601
 10
65.5860376603
 20
6.0332593088
 10
65.5484775641
 20
5.9781711678
 10
65.5084134615
 20
5.9275902383
 10
65.4653445513
 20
5.8815165203
 10
65.4197716346
 20
5.8394492127
 10
65.3716947115
 20
5.8018891165
 10
65.3216145833
 20
5.7688362319
 10
65.2700320513
 20
5.7397897575
 10
65.2169471154
 20
5.715751296
 10
65.1628605769
 20
5.6957192447
 10
65.1072716346
 20
5.680194405
 10
65.0501802885
 20
5.6691767768
 10
64.9915865385
 20
5.6621655588
 10
64.9319911859
 20
5.6601623537
 10
64.9319911859
 20
5.6601623537
 10
64.8728966346
 20
5.6621655588
 10
64.8158052885
 20
5.6686759755
 10
64.7597155449
 20
5.6796936037
 10
64.7056290064
 20
5.6947176421
 10
64.6525440705
 20
5.7137480909
 10
64.6009615385
 20
5.7377865524
 10
64.5508814103
 20
5.7658314242
 10
64.5023036859
 20
5.7978827062
 10
64.4557291667
 20
5.8344411998
 10
64.4116586538
 20
5.8750061037
 10
64.3705929487
 20
5.9200782191
 10
64.33203125
 20
5.969657546
 10
64.2959735577
 20
6.0227424819
 10
64.2624198718
 20
6.0803346293
 10
64.2313701923
 20
6.1424339883
 10
64.2033253205
 20
6.2085397575
 10
64.1782852564
 20
6.2801543409
 10
64.15625
 20
6.3587801421
 10
64.1382211538
 20
6.4444171614
 10
64.1231971154
 20
6.5365645973
 10
64.1111778846
 20
6.6352224498
 10
64.1026642628
 20
6.7413923216
 10
64.09765625
 20
6.8540726101
 10
64.0961538462
 20
6.9732633152
  0
LWPOLYLINE
  5
F5
330
1F
100
AcDbEntity
  8
0
  6
Continuous
 62
     7
100
AcDbPolyline
 90
       85
 70
   128
 43
0.0
 10
64.3205046654
 20
6.9742649178
 10
64.3215144231
 20
6.8741046614
 10
64.3255208333
 20
6.7799540203
 10
64.3315304487
 20
6.6918129947
 10
64.3395432692
 20
6.610683187
 10
64.3505608974
 20
6.5355629947
 10
64.3635817308
 20
6.4664524178
 10
64.3791065705
 20
6.4038522575
 10
64.3971354167
 20
6.3477625139
 10
64.4176682692
 20
6.2961799819
 10
64.4402043269
 20
6.2481030588
 10
64.4647435897
 20
6.2030309434
 10
64.491786859
 20
6.161464437
 10
64.5213341346
 20
6.1229027383
 10
64.5528846154
 20
6.0873458473
 10
64.5869391026
 20
6.0552945652
 10
64.6229967949
 20
6.0262480909
 10
64.6991185897
 20
5.9781711678
 10
64.7772435897
 20
5.9441166806
 10
64.8573717949
 20
5.923583828
 10
64.9395032051
 20
5.9165726101
 10
64.9395032051
 20
5.9165726101
 10
65.0221354167
 20
5.9230830268
 10
65.1022636218
 20
5.9436158793
 10
65.1793870192
 20
5.9766687639
 10
65.2540064103
 20
6.0237440844
 10
65.2895633013
 20
6.0522897575
 10
65.3226161859
 20
6.0838402383
 10
65.3536658654
 20
6.1193971293
 10
65.3827123397
 20
6.157958828
 10
65.4092548077
 20
6.1995253344
 10
65.4337940705
 20
6.2450982511
 10
65.4558293269
 20
6.2936759755
 10
65.4758613782
 20
6.3457593088
 10
65.4758613782
 20
6.3457593088
 10
65.4978966346
 20
6.4128666806
 10
65.5174278846
 20
6.4829788601
 10
65.5334535256
 20
6.5565966486
 10
65.5469751603
 20
6.6332192447
 10
65.5569911859
 20
6.7133474498
 10
65.5645032051
 20
6.7969812639
 10
65.5690104167
 20
6.884120687
 10
65.5705128205
 20
6.9742649178
 10
65.5705128205
 20
6.9742649178
 10
65.5690104167
 20
7.0644091486
 10
65.5655048077
 20
7.1505469691
 10
65.5584935897
 20
7.232177578
 10
65.5494791667
 20
7.3098017768
 10
65.5374599359
 20
7.3834195652
 10
65.5234375
 20
7.4525301421
 10
65.5059094551
 20
7.5176343088
 10
65.4863782051
 20
7.5787320652
 10
65.4643429487
 20
7.6358234114
 10
65.4403044872
 20
7.688407546
 10
65.4142628205
 20
7.7374860716
 10
65.3862179487
 20
7.782558187
 10
65.3561698718
 20
7.8236238921
 10
65.3236177885
 20
7.860683187
 10
65.2895633013
 20
7.8937360716
 10
65.253505609
 20
7.922782546
 10
65.1778846154
 20
7.9703586678
 10
65.1007612179
 20
8.0049139562
 10
65.0211338141
 20
8.0249460075
 10
64.9395032051
 20
8.0319572255
 10
64.9395032051
 20
8.0319572255
 10
64.8568709936
 20
8.0249460075
 10
64.7762419872
 20
8.0049139562
 10
64.6986177885
 20
7.9703586678
 10
64.6229967949
 20
7.922782546
 10
64.5869391026
 20
7.8942368729
 10
64.5533854167
 20
7.8621855909
 10
64.5218349359
 20
7.8266286998
 10
64.4927884615
 20
7.7880670011
 10
64.4657451923
 20
7.7465004947
 10
64.4407051282
 20
7.7014283793
 10
64.4181690705
 20
7.6533514562
 10
64.3976362179
 20
7.6017689242
 10
64.3796073718
 20
7.5456791806
 10
64.3640825321
 20
7.4830790203
 10
64.3505608974
 20
7.4144692447
 10
64.3400440705
 20
7.3388482511
 10
64.3315304487
 20
7.2572176421
 10
64.3255208333
 20
7.1695774178
 10
64.3215144231
 20
7.0749259755
 10
64.3205128205
 20
6.9742649178
  0
LWPOLYLINE
  5
F6
330
1F
100
AcDbEntity
  8
0
  6
Continuous
 62
     7
100
AcDbPolyline
 90
       65
 70
   128
 43
0.0
 10
71.6794729233
 20
27.6601623537
 10
71.5002003205
 20
27.7848618729
 10
71.5002003205
 20
27.7848618729
 10
72.1953125
 20
28.8009876742
 10
72.1953125
 20
28.8009876742
 10
72.062099359
 20
28.7869652383
 10
71.9323918269
 20
28.7819572255
 10
71.9323918269
 20
28.7819572255
 10
71.8537660256
 20
28.7854628344
 10
71.7786458333
 20
28.7954788601
 10
71.7060296474
 20
28.8120053024
 10
71.6369190705
 20
28.8355429627
 10
71.5703125
 20
28.8655910396
 10
71.5072115385
 20
28.9021495332
 10
71.4466145833
 20
28.9457192447
 10
71.3895232372
 20
28.9957993729
 10
71.3374399038
 20
29.0508875139
 10
71.2918669872
 20
29.1089804627
 10
71.2538060897
 20
29.1700782191
 10
71.222255609
 20
29.2346815844
 10
71.1982171474
 20
29.3017889562
 10
71.1806891026
 20
29.372401937
 10
71.1701722756
 20
29.4460197255
 10
71.1666666667
 20
29.5226423216
 10
71.1666666667
 20
29.5226423216
 10
71.1731770833
 20
29.6273097896
 10
71.1922075321
 20
29.7264684434
 10
71.2242588141
 20
29.8206190844
 10
71.2688301282
 20
29.9092609114
 10
71.3254206731
 20
29.9913923216
 10
71.3925280449
 20
30.0645093088
 10
71.4706530449
 20
30.1291126742
 10
71.5592948718
 20
30.1852024178
 10
71.6549479167
 20
30.2302745332
 10
71.7541065705
 20
30.2628266165
 10
71.8567708333
 20
30.2818570652
 10
71.9624399038
 20
30.2883674819
 10
71.9624399038
 20
30.2883674819
 10
72.0661057692
 20
30.2818570652
 10
72.1657652244
 20
30.2633274178
 10
72.2614182692
 20
30.231776937
 10
72.3530649038
 20
30.1877064242
 10
72.4382011218
 20
30.1321174819
 10
72.5133213141
 20
30.0670133152
 10
72.5789262821
 20
29.9913923216
 10
72.6350160256
 20
29.9057553024
 10
72.6795873397
 20
29.8141086678
 10
72.7116386218
 20
29.7189564242
 10
72.7306690705
 20
29.6213001742
 10
72.7371794872
 20
29.5201383152
 10
72.7371794872
 20
29.5201383152
 10
72.7331730769
 20
29.4415125139
 10
72.7216546474
 20
29.3613843088
 10
72.7016225962
 20
29.2787520973
 10
72.6740785256
 20
29.1946174819
 10
72.6570512821
 20
29.1510477703
 10
72.6365184295
 20
29.1054748537
 10
72.6129807692
 20
29.0573979306
 10
72.5864383013
 20
29.0078186037
 10
72.5568910256
 20
28.9552344691
 10
72.5243389423
 20
28.9011479306
 10
72.48828125
 20
28.8445573857
 10
72.44921875
 20
28.7859636357
 10
72.44921875
 20
28.7859636357
 10
71.6794871795
 20
27.6601623537
  0
LWPOLYLINE
  5
F7
330
1F
100
AcDbEntity
  8
0
  6
Continuous
 62
     7
100
AcDbPolyline
 90
       68
 70
   128
 43
0.0
 10
71.9739198685
 20
29.0383674819
 10
72.0335536859
 20
29.0408714883
 10
72.0896434295
 20
29.047381905
 10
72.1432291667
 20
29.0589003344
 10
72.1933092949
 20
29.0749259755
 10
72.2408854167
 20
29.0949580268
 10
72.2854567308
 20
29.1199980909
 10
72.3265224359
 20
29.1495453665
 10
72.3650841346
 20
29.1835998537
 10
72.3996394231
 20
29.2211599498
 10
72.4296875
 20
29.2602224498
 10
72.4552283654
 20
29.301288155
 10
72.4757612179
 20
29.3443570652
 10
72.4922876603
 20
29.3894291806
 10
72.5038060897
 20
29.4360036998
 10
72.5103165064
 20
29.4845814242
 10
72.5128205128
 20
29.5351623537
 10
72.5128205128
 20
29.5351623537
 10
72.5103165064
 20
29.5857432832
 10
72.5028044872
 20
29.6343210075
 10
72.4897836538
 20
29.6808955268
 10
72.4717548077
 20
29.7259676421
 10
72.4487179487
 20
29.7685357511
 10
72.4206730769
 20
29.8096014562
 10
72.387119391
 20
29.8491647575
 10
72.3485576923
 20
29.8862240524
 10
72.3064903846
 20
29.9202785396
 10
72.2624198718
 20
29.9498258152
 10
72.2158453526
 20
29.9748658793
 10
72.1672676282
 20
29.9953987319
 10
72.1166866987
 20
30.0114243729
 10
72.0636017628
 20
30.0229428024
 10
72.0085136218
 20
30.0294532191
 10
71.9509214744
 20
30.0319572255
 10
71.9509214744
 20
30.0319572255
 10
71.8938301282
 20
30.0294532191
 10
71.8392427885
 20
30.0229428024
 10
71.7866586538
 20
30.0114243729
 10
71.7360777244
 20
29.9953987319
 10
71.6875
 20
29.9748658793
 10
71.6409254808
 20
29.9498258152
 10
71.5968549679
 20
29.9202785396
 10
71.5547876603
 20
29.8862240524
 10
71.5162259615
 20
29.8491647575
 10
71.4831730769
 20
29.8096014562
 10
71.4551282051
 20
29.7685357511
 10
71.4320913462
 20
29.7259676421
 10
71.4140625
 20
29.6808955268
 10
71.4010416667
 20
29.6343210075
 10
71.3935296474
 20
29.5857432832
 10
71.391025641
 20
29.5351623537
 10
71.391025641
 20
29.5351623537
 10
71.3935296474
 20
29.4845814242
 10
71.4015424679
 20
29.4360036998
 10
71.4150641026
 20
29.3894291806
 10
71.43359375
 20
29.3443570652
 10
71.4576322115
 20
29.301288155
 10
71.4871794872
 20
29.2602224498
 10
71.5217347756
 20
29.2211599498
 10
71.5617988782
 20
29.1835998537
 10
71.6053685897
 20
29.1495453665
 10
71.6514423077
 20
29.1199980909
 10
71.7000200321
 20
29.0949580268
 10
71.7501001603
 20
29.0749259755
 10
71.8026842949
 20
29.0589003344
 10
71.8577724359
 20
29.047381905
 10
71.9148637821
 20
29.0408714883
 10
71.9739583333
 20
29.0383674819
  0
LWPOLYLINE
  5
F8
330
1F
100
AcDbEntity
  8
0
  6
Continuous
 62
     7
100
AcDbPolyline
 90
       12
 70
   128
 43
0.0
 10
70.7044005394
 20
8.2242649178
 10
71.1666666667
 20
8.2242649178
 10
71.1666666667
 20
8.2242649178
 10
71.1666666667
 20
5.7242649178
 10
71.1666666667
 20
5.7242649178
 10
70.9423076923
 20
5.7242649178
 10
70.9423076923
 20
5.7242649178
 10
70.9423076923
 20
7.9678546614
 10
70.9423076923
 20
7.9678546614
 10
70.5576923077
 20
7.9678546614
 10
70.5576923077
 20
7.9678546614
 10
70.7044270833
 20
8.2242649178
  0
LWPOLYLINE
  5
F9
330
1F
100
AcDbEntity
  8
0
  6
Continuous
 62
     7
100
AcDbPolyline
 90
      100
 70
   128
 43
0.0
 10
72.0961093903
 20
6.9732633152
 10
72.09765625
 20
7.0934556229
 10
72.1026642628
 20
7.2066367127
 10
72.1111778846
 20
7.3133073857
 10
72.1226963141
 20
7.4124660396
 10
72.1372195513
 20
7.5046134755
 10
72.1557491987
 20
7.5897496934
 10
72.1772836538
 20
7.6678746934
 10
72.2018229167
 20
7.7389884755
 10
72.2293669872
 20
7.8045934434
 10
72.2599158654
 20
7.8661920011
 10
72.2934695513
 20
7.9232833473
 10
72.3295272436
 20
7.9768690844
 10
72.3680889423
 20
8.0259476101
 10
72.4091546474
 20
8.0710197255
 10
72.4532251603
 20
8.1115846293
 10
72.5003004808
 20
8.1486439242
 10
72.5493790064
 20
8.1811960075
 10
72.5999599359
 20
8.2097416806
 10
72.6515424679
 20
8.2337801421
 10
72.7051282051
 20
8.2533113921
 10
72.7597155449
 20
8.2688362319
 10
72.8158052885
 20
8.2798538601
 10
72.8728966346
 20
8.2863642768
 10
72.9319911859
 20
8.2883674819
 10
72.9319911859
 20
8.2883674819
 10
72.9915865385
 20
8.2863642768
 10
73.0501802885
 20
8.2798538601
 10
73.1067708333
 20
8.2688362319
 10
73.1623597756
 20
8.2533113921
 10
73.2164463141
 20
8.2337801421
 10
73.2690304487
 20
8.2097416806
 10
73.3206129808
 20
8.1811960075
 10
73.3701923077
 20
8.1481431229
 10
73.4177684295
 20
8.111083828
 10
73.4633413462
 20
8.0690165203
 10
73.5059094551
 20
8.0229428024
 10
73.5459735577
 20
7.9728626742
 10
73.5835336538
 20
7.9177745332
 10
73.6185897436
 20
7.8586799819
 10
73.6506410256
 20
7.7950782191
 10
73.6806891026
 20
7.7269692447
 10
73.7072315705
 20
7.6538522575
 10
73.7307692308
 20
7.574725655
 10
73.7503004808
 20
7.489589437
 10
73.7663261218
 20
7.3984436037
 10
73.7788461538
 20
7.301288155
 10
73.7878605769
 20
7.1976222896
 10
73.7928685897
 20
7.0884476101
 10
73.7948717949
 20
6.9732633152
 10
73.7948717949
 20
6.9732633152
 10
73.7928685897
 20
6.8585798216
 10
73.7878605769
 20
6.7499059434
 10
73.7788461538
 20
6.6467408793
 10
73.7668269231
 20
6.5500862319
 10
73.7508012821
 20
6.4594411998
 10
73.7312700321
 20
6.3748057832
 10
73.7087339744
 20
6.2956791806
 10
73.6821915064
 20
6.2230629947
 10
73.6526442308
 20
6.1554548216
 10
73.6205929487
 20
6.0923538601
 10
73.5860376603
 20
6.0332593088
 10
73.5484775641
 20
5.9781711678
 10
73.5084134615
 20
5.9275902383
 10
73.4653445513
 20
5.8815165203
 10
73.4197716346
 20
5.8394492127
 10
73.3716947115
 20
5.8018891165
 10
73.3216145833
 20
5.7688362319
 10
73.2700320513
 20
5.7397897575
 10
73.2169471154
 20
5.715751296
 10
73.1628605769
 20
5.6957192447
 10
73.1072716346
 20
5.680194405
 10
73.0501802885
 20
5.6691767768
 10
72.9915865385
 20
5.6621655588
 10
72.9319911859
 20
5.6601623537
 10
72.9319911859
 20
5.6601623537
 10
72.8728966346
 20
5.6621655588
 10
72.8158052885
 20
5.6686759755
 10
72.7597155449
 20
5.6796936037
 10
72.7056290064
 20
5.6947176421
 10
72.6525440705
 20
5.7137480909
 10
72.6009615385
 20
5.7377865524
 10
72.5508814103
 20
5.7658314242
 10
72.5023036859
 20
5.7978827062
 10
72.4557291667
 20
5.8344411998
 10
72.4116586538
 20
5.8750061037
 10
72.3705929487
 20
5.9200782191
 10
72.33203125
 20
5.969657546
 10
72.2959735577
 20
6.0227424819
 10
72.2624198718
 20
6.0803346293
 10
72.2313701923
 20
6.1424339883
 10
72.2033253205
 20
6.2085397575
 10
72.1782852564
 20
6.2801543409
 10
72.15625
 20
6.3587801421
 10
72.1382211538
 20
6.4444171614
 10
72.1231971154
 20
6.5365645973
 10
72.1111778846
 20
6.6352224498
 10
72.1026642628
 20
6.7413923216
 10
72.09765625
 20
6.8540726101
 10
72.0961538462
 20
6.9732633152
  0
LWPOLYLINE
  5
FA
330
1F
100
AcDbEntity
  8
0
  6
Continuous
 62
     7
100
AcDbPolyline
 90
       85
 70
   128
 43
0.0
 10
72.3204612732
 20
6.9742649178
 10
72.3215144231
 20
6.8741046614
 10
72.3255208333
 20
6.7799540203
 10
72.3315304487
 20
6.6918129947
 10
72.3395432692
 20
6.610683187
 10
72.3505608974
 20
6.5355629947
 10
72.3635817308
 20
6.4664524178
 10
72.3791065705
 20
6.4038522575
 10
72.3971354167
 20
6.3477625139
 10
72.4176682692
 20
6.2961799819
 10
72.4402043269
 20
6.2481030588
 10
72.4647435897
 20
6.2030309434
 10
72.491786859
 20
6.161464437
 10
72.5213341346
 20
6.1229027383
 10
72.5528846154
 20
6.0873458473
 10
72.5869391026
 20
6.0552945652
 10
72.6229967949
 20
6.0262480909
 10
72.6991185897
 20
5.9781711678
 10
72.7772435897
 20
5.9441166806
 10
72.8573717949
 20
5.923583828
 10
72.9395032051
 20
5.9165726101
 10
72.9395032051
 20
5.9165726101
 10
73.0221354167
 20
5.9230830268
 10
73.1022636218
 20
5.9436158793
 10
73.1793870192
 20
5.9766687639
 10
73.2540064103
 20
6.0237440844
 10
73.2895633013
 20
6.0522897575
 10
73.3226161859
 20
6.0838402383
 10
73.3536658654
 20
6.1193971293
 10
73.3827123397
 20
6.157958828
 10
73.4092548077
 20
6.1995253344
 10
73.4337940705
 20
6.2450982511
 10
73.4558293269
 20
6.2936759755
 10
73.4758613782
 20
6.3457593088
 10
73.4758613782
 20
6.3457593088
 10
73.4978966346
 20
6.4128666806
 10
73.5174278846
 20
6.4829788601
 10
73.5334535256
 20
6.5565966486
 10
73.5469751603
 20
6.6332192447
 10
73.5569911859
 20
6.7133474498
 10
73.5645032051
 20
6.7969812639
 10
73.5690104167
 20
6.884120687
 10
73.5705128205
 20
6.9742649178
 10
73.5705128205
 20
6.9742649178
 10
73.5690104167
 20
7.0644091486
 10
73.5655048077
 20
7.1505469691
 10
73.5584935897
 20
7.232177578
 10
73.5494791667
 20
7.3098017768
 10
73.5374599359
 20
7.3834195652
 10
73.5234375
 20
7.4525301421
 10
73.5059094551
 20
7.5176343088
 10
73.4863782051
 20
7.5787320652
 10
73.4643429487
 20
7.6358234114
 10
73.4403044872
 20
7.688407546
 10
73.4142628205
 20
7.7374860716
 10
73.3862179487
 20
7.782558187
 10
73.3561698718
 20
7.8236238921
 10
73.3236177885
 20
7.860683187
 10
73.2895633013
 20
7.8937360716
 10
73.253505609
 20
7.922782546
 10
73.1778846154
 20
7.9703586678
 10
73.1007612179
 20
8.0049139562
 10
73.0211338141
 20
8.0249460075
 10
72.9395032051
 20
8.0319572255
 10
72.9395032051
 20
8.0319572255
 10
72.8568709936
 20
8.0249460075
 10
72.7762419872
 20
8.0049139562
 10
72.6986177885
 20
7.9703586678
 10
72.6229967949
 20
7.922782546
 10
72.5869391026
 20
7.8942368729
 10
72.5533854167
 20
7.8621855909
 10
72.5218349359
 20
7.8266286998
 10
72.4927884615
 20
7.7880670011
 10
72.4657451923
 20
7.7465004947
 10
72.4407051282
 20
7.7014283793
 10
72.4181690705
 20
7.6533514562
 10
72.3976362179
 20
7.6017689242
 10
72.3796073718
 20
7.5456791806
 10
72.3640825321
 20
7.4830790203
 10
72.3505608974
 20
7.4144692447
 10
72.3400440705
 20
7.3388482511
 10
72.3315304487
 20
7.2572176421
 10
72.3255208333
 20
7.1695774178
 10
72.3215144231
 20
7.0749259755
 10
72.3205128205
 20
6.9742649178
  0
LWPOLYLINE
  5
FB
330
1F
100
AcDbEntity
  8
0
  6
Continuous
 62
     7
100
AcDbPolyline
 90
      106
 70
   128
 43
0.0
 10
79.4935822487
 20
29.4550341486
 10
79.2692307692
 20
29.4550341486
 10
79.2692307692
 20
29.4550341486
 10
79.2752403846
 20
29.5441767768
 10
79.2882612179
 20
29.6293129947
 10
79.3077924679
 20
29.7099420011
 10
79.3348357372
 20
29.7870653986
 10
79.3683894231
 20
29.8596815844
 10
79.4089543269
 20
29.9287921614
 10
79.4565304487
 20
29.9933955268
 10
79.5111177885
 20
30.0539924819
 10
79.570713141
 20
30.1090806229
 10
79.6343149038
 20
30.1566567447
 10
79.7009214744
 20
30.1967208473
 10
79.7705328526
 20
30.2297737319
 10
79.844150641
 20
30.2553145973
 10
79.9207732372
 20
30.2738442447
 10
80.0009014423
 20
30.2848618729
 10
80.0845352564
 20
30.2883674819
 10
80.0845352564
 20
30.2883674819
 10
80.1666666667
 20
30.2848618729
 10
80.2452924679
 20
30.274345046
 10
80.3194110577
 20
30.2573178024
 10
80.3900240385
 20
30.2332793409
 10
80.4561298077
 20
30.2017288601
 10
80.5182291667
 20
30.1636679627
 10
80.5768229167
 20
30.1190966486
 10
80.6309094551
 20
30.0670133152
 10
80.6799879808
 20
30.0104227703
 10
80.7220552885
 20
29.9513282191
 10
80.7581129808
 20
29.8897296614
 10
80.7876602564
 20
29.8261278986
 10
80.8101963141
 20
29.759521328
 10
80.8267227564
 20
29.6904107511
 10
80.8362379808
 20
29.6192969691
 10
80.8397435897
 20
29.5451783793
 10
80.8397435897
 20
29.5451783793
 10
80.8332331731
 20
29.4410117127
 10
80.8137019231
 20
29.340350655
 10
80.781650641
 20
29.242694405
 10
80.7360777244
 20
29.1485437639
 10
80.70703125
 20
29.1004668409
 10
80.6724759615
 20
29.0478827062
 10
80.6314102564
 20
28.9912921614
 10
80.5843349359
 20
28.9311960075
 10
80.5307491987
 20
28.8660918409
 10
80.4716546474
 20
28.7974820652
 10
80.4060496795
 20
28.7248658793
 10
80.3344350962
 20
28.6477424819
 10
80.3344350962
 20
28.6477424819
 10
79.7089342949
 20
27.9806751742
 10
79.7089342949
 20
27.9806751742
 10
80.8717948718
 20
27.9806751742
 10
80.8717948718
 20
27.9806751742
 10
80.8717948718
 20
27.7242649178
 10
80.8717948718
 20
27.7242649178
 10
79.1730769231
 20
27.7242649178
 10
79.1730769231
 20
27.7242649178
 10
80.1426282051
 20
28.7589203665
 10
80.1426282051
 20
28.7589203665
 10
80.2132411859
 20
28.8330389562
 10
80.27734375
 20
28.9021495332
 10
80.3349358974
 20
28.9662520973
 10
80.3860176282
 20
29.0253466486
 10
80.4305889423
 20
29.0799339883
 10
80.469150641
 20
29.1290125139
 10
80.5007011218
 20
29.173583828
 10
80.5262419872
 20
29.2131471293
 10
80.5653044872
 20
29.2882673216
 10
80.593349359
 20
29.3653907191
 10
80.6098758013
 20
29.4440165203
 10
80.6153846154
 20
29.525146328
 10
80.6153846154
 20
29.525146328
 10
80.612880609
 20
29.5762280588
 10
80.6053685897
 20
29.6253065844
 10
80.593349359
 20
29.672381905
 10
80.5763221154
 20
29.7179548216
 10
80.5537860577
 20
29.7620253344
 10
80.5267427885
 20
29.8035918409
 10
80.4951923077
 20
29.8436559434
 10
80.4581330128
 20
29.8822176421
 10
80.417568109
 20
29.9172737319
 10
80.375
 20
29.9478226101
 10
80.3304286859
 20
29.9733634755
 10
80.2833533654
 20
29.9943971293
 10
80.2337740385
 20
30.0109235716
 10
80.1826923077
 20
30.0224420011
 10
80.1291065705
 20
30.0294532191
 10
80.0730168269
 20
30.0319572255
 10
80.0730168269
 20
30.0319572255
 10
80.0144230769
 20
30.0294532191
 10
79.9583333333
 20
30.0224420011
 10
79.9047475962
 20
30.0104227703
 10
79.8536658654
 20
29.993896328
 10
79.805088141
 20
29.9728626742
 10
79.7590144231
 20
29.9468210075
 10
79.7154447115
 20
29.915771328
 10
79.6743790064
 20
29.880214437
 10
79.6368189103
 20
29.8406511357
 10
79.6037660256
 20
29.7970814242
 10
79.5747195513
 20
29.7495053024
 10
79.5496794872
 20
29.6984235716
 10
79.5291466346
 20
29.6433354306
 10
79.5131209936
 20
29.5842408793
 10
79.5011017628
 20
29.5216407191
 10
79.4935897436
 20
29.4550341486
  0
LWPOLYLINE
  5
FC
330
1F
100
AcDbEntity
  8
0
  6
Continuous
 62
     7
100
AcDbPolyline
 90
       12
 70
   128
 43
0.0
 10
81.6274881363
 20
30.2242649178
 10
82.0897435897
 20
30.2242649178
 10
82.0897435897
 20
30.2242649178
 10
82.0897435897
 20
27.7242649178
 10
82.0897435897
 20
27.7242649178
 10
81.8653846154
 20
27.7242649178
 10
81.8653846154
 20
27.7242649178
 10
81.8653846154
 20
29.9678546614
 10
81.8653846154
 20
29.9678546614
 10
81.4807692308
 20
29.9678546614
 10
81.4807692308
 20
29.9678546614
 10
81.6275040064
 20
30.2242649178
  0
LWPOLYLINE
  5
FD
330
1F
100
AcDbEntity
  8
0
  6
Continuous
 62
     7
100
AcDbPolyline
 90
      106
 70
   128
 43
0.0
 10
79.4935822487
 20
7.4550341486
 10
79.2692307692
 20
7.4550341486
 10
79.2692307692
 20
7.4550341486
 10
79.2752403846
 20
7.5441767768
 10
79.2882612179
 20
7.6293129947
 10
79.3077924679
 20
7.7099420011
 10
79.3348357372
 20
7.7870653986
 10
79.3683894231
 20
7.8596815844
 10
79.4089543269
 20
7.9287921614
 10
79.4565304487
 20
7.9933955268
 10
79.5111177885
 20
8.0539924819
 10
79.570713141
 20
8.1090806229
 10
79.6343149038
 20
8.1566567447
 10
79.7009214744
 20
8.1967208473
 10
79.7705328526
 20
8.2297737319
 10
79.844150641
 20
8.2553145973
 10
79.9207732372
 20
8.2738442447
 10
80.0009014423
 20
8.2848618729
 10
80.0845352564
 20
8.2883674819
 10
80.0845352564
 20
8.2883674819
 10
80.1666666667
 20
8.2848618729
 10
80.2452924679
 20
8.274345046
 10
80.3194110577
 20
8.2573178024
 10
80.3900240385
 20
8.2332793409
 10
80.4561298077
 20
8.2017288601
 10
80.5182291667
 20
8.1636679627
 10
80.5768229167
 20
8.1190966486
 10
80.6309094551
 20
8.0670133152
 10
80.6799879808
 20
8.0104227703
 10
80.7220552885
 20
7.9513282191
 10
80.7581129808
 20
7.8897296614
 10
80.7876602564
 20
7.8261278986
 10
80.8101963141
 20
7.759521328
 10
80.8267227564
 20
7.6904107511
 10
80.8362379808
 20
7.6192969691
 10
80.8397435897
 20
7.5451783793
 10
80.8397435897
 20
7.5451783793
 10
80.8332331731
 20
7.4410117127
 10
80.8137019231
 20
7.340350655
 10
80.781650641
 20
7.242694405
 10
80.7360777244
 20
7.1485437639
 10
80.70703125
 20
7.1004668409
 10
80.6724759615
 20
7.0478827062
 10
80.6314102564
 20
6.9912921614
 10
80.5843349359
 20
6.9311960075
 10
80.5307491987
 20
6.8660918409
 10
80.4716546474
 20
6.7974820652
 10
80.4060496795
 20
6.7248658793
 10
80.3344350962
 20
6.6477424819
 10
80.3344350962
 20
6.6477424819
 10
79.7089342949
 20
5.9806751742
 10
79.7089342949
 20
5.9806751742
 10
80.8717948718
 20
5.9806751742
 10
80.8717948718
 20
5.9806751742
 10
80.8717948718
 20
5.7242649178
 10
80.8717948718
 20
5.7242649178
 10
79.1730769231
 20
5.7242649178
 10
79.1730769231
 20
5.7242649178
 10
80.1426282051
 20
6.7589203665
 10
80.1426282051
 20
6.7589203665
 10
80.2132411859
 20
6.8330389562
 10
80.27734375
 20
6.9021495332
 10
80.3349358974
 20
6.9662520973
 10
80.3860176282
 20
7.0253466486
 10
80.4305889423
 20
7.0799339883
 10
80.469150641
 20
7.1290125139
 10
80.5007011218
 20
7.173583828
 10
80.5262419872
 20
7.2131471293
 10
80.5653044872
 20
7.2882673216
 10
80.593349359
 20
7.3653907191
 10
80.6098758013
 20
7.4440165203
 10
80.6153846154
 20
7.525146328
 10
80.6153846154
 20
7.525146328
 10
80.612880609
 20
7.5762280588
 10
80.6053685897
 20
7.6253065844
 10
80.593349359
 20
7.672381905
 10
80.5763221154
 20
7.7179548216
 10
80.5537860577
 20
7.7620253344
 10
80.5267427885
 20
7.8035918409
 10
80.4951923077
 20
7.8436559434
 10
80.4581330128
 20
7.8822176421
 10
80.417568109
 20
7.9172737319
 10
80.375
 20
7.9478226101
 10
80.3304286859
 20
7.9733634755
 10
80.2833533654
 20
7.9943971293
 10
80.2337740385
 20
8.0109235716
 10
80.1826923077
 20
8.0224420011
 10
80.1291065705
 20
8.0294532191
 10
80.0730168269
 20
8.0319572255
 10
80.0730168269
 20
8.0319572255
 10
80.0144230769
 20
8.0294532191
 10
79.9583333333
 20
8.0224420011
 10
79.9047475962
 20
8.0104227703
 10
79.8536658654
 20
7.993896328
 10
79.805088141
 20
7.9728626742
 10
79.7590144231
 20
7.9468210075
 10
79.7154447115
 20
7.915771328
 10
79.6743790064
 20
7.880214437
 10
79.6368189103
 20
7.8406511357
 10
79.6037660256
 20
7.7970814242
 10
79.5747195513
 20
7.7495053024
 10
79.5496794872
 20
7.6984235716
 10
79.5291466346
 20
7.6433354306
 10
79.5131209936
 20
7.5842408793
 10
79.5011017628
 20
7.5216407191
 10
79.4935897436
 20
7.4550341486
  0
LWPOLYLINE
  5
FE
330
1F
100
AcDbEntity
  8
0
  6
Continuous
 62
     7
100
AcDbPolyline
 90
      106
 70
   128
 43
0.0
 10
81.4166665077
 20
7.4550341486
 10
81.1923076923
 20
7.4550341486
 10
81.1923076923
 20
7.4550341486
 10
81.1983173077
 20
7.5441767768
 10
81.211338141
 20
7.6293129947
 10
81.230869391
 20
7.7099420011
 10
81.2579126603
 20
7.7870653986
 10
81.2914663462
 20
7.8596815844
 10
81.33203125
 20
7.9287921614
 10
81.3796073718
 20
7.9933955268
 10
81.4341947115
 20
8.0539924819
 10
81.4937900641
 20
8.1090806229
 10
81.5573918269
 20
8.1566567447
 10
81.6239983974
 20
8.1967208473
 10
81.6936097756
 20
8.2297737319
 10
81.7672275641
 20
8.2553145973
 10
81.8438501603
 20
8.2738442447
 10
81.9239783654
 20
8.2848618729
 10
82.0076121795
 20
8.2883674819
 10
82.0076121795
 20
8.2883674819
 10
82.0897435897
 20
8.2848618729
 10
82.168369391
 20
8.274345046
 10
82.2424879808
 20
8.2573178024
 10
82.3131009615
 20
8.2332793409
 10
82.3792067308
 20
8.2017288601
 10
82.4413060897
 20
8.1636679627
 10
82.4998998397
 20
8.1190966486
 10
82.5539863782
 20
8.0670133152
 10
82.6030649038
 20
8.0104227703
 10
82.6451322115
 20
7.9513282191
 10
82.6811899038
 20
7.8897296614
 10
82.7107371795
 20
7.8261278986
 10
82.7332732372
 20
7.759521328
 10
82.7497996795
 20
7.6904107511
 10
82.7593149038
 20
7.6192969691
 10
82.7628205128
 20
7.5451783793
 10
82.7628205128
 20
7.5451783793
 10
82.7563100962
 20
7.4410117127
 10
82.7367788462
 20
7.340350655
 10
82.7047275641
 20
7.242694405
 10
82.6591546474
 20
7.1485437639
 10
82.6301081731
 20
7.1004668409
 10
82.5955528846
 20
7.0478827062
 10
82.5544871795
 20
6.9912921614
 10
82.507411859
 20
6.9311960075
 10
82.4538261218
 20
6.8660918409
 10
82.3947315705
 20
6.7974820652
 10
82.3291266026
 20
6.7248658793
 10
82.2575120192
 20
6.6477424819
 10
82.2575120192
 20
6.6477424819
 10
81.6320112179
 20
5.9806751742
 10
81.6320112179
 20
5.9806751742
 10
82.7948717949
 20
5.9806751742
 10
82.7948717949
 20
5.9806751742
 10
82.7948717949
 20
5.7242649178
 10
82.7948717949
 20
5.7242649178
 10
81.0961538462
 20
5.7242649178
 10
81.0961538462
 20
5.7242649178
 10
82.0657051282
 20
6.7589203665
 10
82.0657051282
 20
6.7589203665
 10
82.136318109
 20
6.8330389562
 10
82.2004206731
 20
6.9021495332
 10
82.2580128205
 20
6.9662520973
 10
82.3090945513
 20
7.0253466486
 10
82.3536658654
 20
7.0799339883
 10
82.3922275641
 20
7.1290125139
 10
82.4237780449
 20
7.173583828
 10
82.4493189103
 20
7.2131471293
 10
82.4883814103
 20
7.2882673216
 10
82.5164262821
 20
7.3653907191
 10
82.5329527244
 20
7.4440165203
 10
82.5384615385
 20
7.525146328
 10
82.5384615385
 20
7.525146328
 10
82.5359575321
 20
7.5762280588
 10
82.5284455128
 20
7.6253065844
 10
82.5164262821
 20
7.672381905
 10
82.4993990385
 20
7.7179548216
 10
82.4768629808
 20
7.7620253344
 10
82.4498197115
 20
7.8035918409
 10
82.4182692308
 20
7.8436559434
 10
82.3812099359
 20
7.8822176421
 10
82.3406450321
 20
7.9172737319
 10
82.2980769231
 20
7.9478226101
 10
82.253505609
 20
7.9733634755
 10
82.2064302885
 20
7.9943971293
 10
82.1568509615
 20
8.0109235716
 10
82.1057692308
 20
8.0224420011
 10
82.0521834936
 20
8.0294532191
 10
81.99609375
 20
8.0319572255
 10
81.99609375
 20
8.0319572255
 10
81.9375
 20
8.0294532191
 10
81.8814102564
 20
8.0224420011
 10
81.8278245192
 20
8.0104227703
 10
81.7767427885
 20
7.993896328
 10
81.7281650641
 20
7.9728626742
 10
81.6820913462
 20
7.9468210075
 10
81.6385216346
 20
7.915771328
 10
81.5974559295
 20
7.880214437
 10
81.5598958333
 20
7.8406511357
 10
81.5268429487
 20
7.7970814242
 10
81.4977964744
 20
7.7495053024
 10
81.4727564103
 20
7.6984235716
 10
81.4522235577
 20
7.6433354306
 10
81.4361979167
 20
7.5842408793
 10
81.4241786859
 20
7.5216407191
 10
81.4166666667
 20
7.4550341486
  0
LWPOLYLINE
  5
FF
330
1F
100
AcDbEntity
  8
0
  6
Continuous
 62
     7
100
AcDbPolyline
 90
       12
 70
   128
 43
0.0
 10
87.7044200897
 20
30.2242649178
 10
88.1666666667
 20
30.2242649178
 10
88.1666666667
 20
30.2242649178
 10
88.1666666667
 20
27.7242649178
 10
88.1666666667
 20
27.7242649178
 10
87.9423076923
 20
27.7242649178
 10
87.9423076923
 20
27.7242649178
 10
87.9423076923
 20
29.9678546614
 10
87.9423076923
 20
29.9678546614
 10
87.5576923077
 20
29.9678546614
 10
87.5576923077
 20
29.9678546614
 10
87.7044270833
 20
30.2242649178
  0
LWPOLYLINE
  5
100
330
1F
100
AcDbEntity
  8
0
  6
Continuous
 62
     7
100
AcDbPolyline
 90
       12
 70
   128
 43
0.0
 10
89.6274447441
 20
30.2242649178
 10
90.0897435897
 20
30.2242649178
 10
90.0897435897
 20
30.2242649178
 10
90.0897435897
 20
27.7242649178
 10
90.0897435897
 20
27.7242649178
 10
89.8653846154
 20
27.7242649178
 10
89.8653846154
 20
27.7242649178
 10
89.8653846154
 20
29.9678546614
 10
89.8653846154
 20
29.9678546614
 10
89.4807692308
 20
29.9678546614
 10
89.4807692308
 20
29.9678546614
 10
89.6275040064
 20
30.2242649178
  0
LWPOLYLINE
  5
101
330
1F
100
AcDbEntity
  8
0
  6
Continuous
 62
     7
100
AcDbPolyline
 90
       12
 70
   128
 43
0.0
 10
87.7044200897
 20
8.2242649178
 10
88.1666666667
 20
8.2242649178
 10
88.1666666667
 20
8.2242649178
 10
88.1666666667
 20
5.7242649178
 10
88.1666666667
 20
5.7242649178
 10
87.9423076923
 20
5.7242649178
 10
87.9423076923
 20
5.7242649178
 10
87.9423076923
 20
7.9678546614
 10
87.9423076923
 20
7.9678546614
 10
87.5576923077
 20
7.9678546614
 10
87.5576923077
 20
7.9678546614
 10
87.7044270833
 20
8.2242649178
  0
LWPOLYLINE
  5
102
330
1F
100
AcDbEntity
  8
0
  6
Continuous
 62
     7
100
AcDbPolyline
 90
      106
 70
   128
 43
0.0
 10
89.4166231155
 20
7.4550341486
 10
89.1923076923
 20
7.4550341486
 10
89.1923076923
 20
7.4550341486
 10
89.1983173077
 20
7.5441767768
 10
89.211338141
 20
7.6293129947
 10
89.230869391
 20
7.7099420011
 10
89.2579126603
 20
7.7870653986
 10
89.2914663462
 20
7.8596815844
 10
89.33203125
 20
7.9287921614
 10
89.3796073718
 20
7.9933955268
 10
89.4341947115
 20
8.0539924819
 10
89.4937900641
 20
8.1090806229
 10
89.5573918269
 20
8.1566567447
 10
89.6239983974
 20
8.1967208473
 10
89.6936097756
 20
8.2297737319
 10
89.7672275641
 20
8.2553145973
 10
89.8438501603
 20
8.2738442447
 10
89.9239783654
 20
8.2848618729
 10
90.0076121795
 20
8.2883674819
 10
90.0076121795
 20
8.2883674819
 10
90.0897435897
 20
8.2848618729
 10
90.168369391
 20
8.274345046
 10
90.2424879808
 20
8.2573178024
 10
90.3131009615
 20
8.2332793409
 10
90.3792067308
 20
8.2017288601
 10
90.4413060897
 20
8.1636679627
 10
90.4998998397
 20
8.1190966486
 10
90.5539863782
 20
8.0670133152
 10
90.6030649038
 20
8.0104227703
 10
90.6451322115
 20
7.9513282191
 10
90.6811899038
 20
7.8897296614
 10
90.7107371795
 20
7.8261278986
 10
90.7332732372
 20
7.759521328
 10
90.7497996795
 20
7.6904107511
 10
90.7593149038
 20
7.6192969691
 10
90.7628205128
 20
7.5451783793
 10
90.7628205128
 20
7.5451783793
 10
90.7563100962
 20
7.4410117127
 10
90.7367788462
 20
7.340350655
 10
90.7047275641
 20
7.242694405
 10
90.6591546474
 20
7.1485437639
 10
90.6301081731
 20
7.1004668409
 10
90.5955528846
 20
7.0478827062
 10
90.5544871795
 20
6.9912921614
 10
90.507411859
 20
6.9311960075
 10
90.4538261218
 20
6.8660918409
 10
90.3947315705
 20
6.7974820652
 10
90.3291266026
 20
6.7248658793
 10
90.2575120192
 20
6.6477424819
 10
90.2575120192
 20
6.6477424819
 10
89.6320112179
 20
5.9806751742
 10
89.6320112179
 20
5.9806751742
 10
90.7948717949
 20
5.9806751742
 10
90.7948717949
 20
5.9806751742
 10
90.7948717949
 20
5.7242649178
 10
90.7948717949
 20
5.7242649178
 10
89.0961538462
 20
5.7242649178
 10
89.0961538462
 20
5.7242649178
 10
90.0657051282
 20
6.7589203665
 10
90.0657051282
 20
6.7589203665
 10
90.136318109
 20
6.8330389562
 10
90.2004206731
 20
6.9021495332
 10
90.2580128205
 20
6.9662520973
 10
90.3090945513
 20
7.0253466486
 10
90.3536658654
 20
7.0799339883
 10
90.3922275641
 20
7.1290125139
 10
90.4237780449
 20
7.173583828
 10
90.4493189103
 20
7.2131471293
 10
90.4883814103
 20
7.2882673216
 10
90.5164262821
 20
7.3653907191
 10
90.5329527244
 20
7.4440165203
 10
90.5384615385
 20
7.525146328
 10
90.5384615385
 20
7.525146328
 10
90.5359575321
 20
7.5762280588
 10
90.5284455128
 20
7.6253065844
 10
90.5164262821
 20
7.672381905
 10
90.4993990385
 20
7.7179548216
 10
90.4768629808
 20
7.7620253344
 10
90.4498197115
 20
7.8035918409
 10
90.4182692308
 20
7.8436559434
 10
90.3812099359
 20
7.8822176421
 10
90.3406450321
 20
7.9172737319
 10
90.2980769231
 20
7.9478226101
 10
90.253505609
 20
7.9733634755
 10
90.2064302885
 20
7.9943971293
 10
90.1568509615
 20
8.0109235716
 10
90.1057692308
 20
8.0224420011
 10
90.0521834936
 20
8.0294532191
 10
89.99609375
 20
8.0319572255
 10
89.99609375
 20
8.0319572255
 10
89.9375
 20
8.0294532191
 10
89.8814102564
 20
8.0224420011
 10
89.8278245192
 20
8.0104227703
 10
89.7767427885
 20
7.993896328
 10
89.7281650641
 20
7.9728626742
 10
89.6820913462
 20
7.9468210075
 10
89.6385216346
 20
7.915771328
 10
89.5974559295
 20
7.880214437
 10
89.5598958333
 20
7.8406511357
 10
89.5268429487
 20
7.7970814242
 10
89.4977964744
 20
7.7495053024
 10
89.4727564103
 20
7.6984235716
 10
89.4522235577
 20
7.6433354306
 10
89.4361979167
 20
7.5842408793
 10
89.4241786859
 20
7.5216407191
 10
89.4166666667
 20
7.4550341486
  0
LWPOLYLINE
  5
103
330
1F
100
AcDbEntity
  8
0
  6
Continuous
 62
     7
100
AcDbPolyline
 90
      106
 70
   128
 43
0.0
 10
96.4935421944
 20
29.4550341486
 10
96.2692307692
 20
29.4550341486
 10
96.2692307692
 20
29.4550341486
 10
96.2752403846
 20
29.5441767768
 10
96.2882612179
 20
29.6293129947
 10
96.3077924679
 20
29.7099420011
 10
96.3348357372
 20
29.7870653986
 10
96.3683894231
 20
29.8596815844
 10
96.4089543269
 20
29.9287921614
 10
96.4565304487
 20
29.9933955268
 10
96.5111177885
 20
30.0539924819
 10
96.570713141
 20
30.1090806229
 10
96.6343149038
 20
30.1566567447
 10
96.7009214744
 20
30.1967208473
 10
96.7705328526
 20
30.2297737319
 10
96.844150641
 20
30.2553145973
 10
96.9207732372
 20
30.2738442447
 10
97.0009014423
 20
30.2848618729
 10
97.0845352564
 20
30.2883674819
 10
97.0845352564
 20
30.2883674819
 10
97.1666666667
 20
30.2848618729
 10
97.2452924679
 20
30.274345046
 10
97.3194110577
 20
30.2573178024
 10
97.3900240385
 20
30.2332793409
 10
97.4561298077
 20
30.2017288601
 10
97.5182291667
 20
30.1636679627
 10
97.5768229167
 20
30.1190966486
 10
97.6309094551
 20
30.0670133152
 10
97.6799879808
 20
30.0104227703
 10
97.7220552885
 20
29.9513282191
 10
97.7581129808
 20
29.8897296614
 10
97.7876602564
 20
29.8261278986
 10
97.8101963141
 20
29.759521328
 10
97.8267227564
 20
29.6904107511
 10
97.8362379808
 20
29.6192969691
 10
97.8397435897
 20
29.5451783793
 10
97.8397435897
 20
29.5451783793
 10
97.8332331731
 20
29.4410117127
 10
97.8137019231
 20
29.340350655
 10
97.781650641
 20
29.242694405
 10
97.7360777244
 20
29.1485437639
 10
97.70703125
 20
29.1004668409
 10
97.6724759615
 20
29.0478827062
 10
97.6314102564
 20
28.9912921614
 10
97.5843349359
 20
28.9311960075
 10
97.5307491987
 20
28.8660918409
 10
97.4716546474
 20
28.7974820652
 10
97.4060496795
 20
28.7248658793
 10
97.3344350962
 20
28.6477424819
 10
97.3344350962
 20
28.6477424819
 10
96.7089342949
 20
27.9806751742
 10
96.7089342949
 20
27.9806751742
 10
97.8717948718
 20
27.9806751742
 10
97.8717948718
 20
27.9806751742
 10
97.8717948718
 20
27.7242649178
 10
97.8717948718
 20
27.7242649178
 10
96.1730769231
 20
27.7242649178
 10
96.1730769231
 20
27.7242649178
 10
97.1426282051
 20
28.7589203665
 10
97.1426282051
 20
28.7589203665
 10
97.2132411859
 20
28.8330389562
 10
97.27734375
 20
28.9021495332
 10
97.3349358974
 20
28.9662520973
 10
97.3860176282
 20
29.0253466486
 10
97.4305889423
 20
29.0799339883
 10
97.469150641
 20
29.1290125139
 10
97.5007011218
 20
29.173583828
 10
97.5262419872
 20
29.2131471293
 10
97.5653044872
 20
29.2882673216
 10
97.593349359
 20
29.3653907191
 10
97.6098758013
 20
29.4440165203
 10
97.6153846154
 20
29.525146328
 10
97.6153846154
 20
29.525146328
 10
97.612880609
 20
29.5762280588
 10
97.6053685897
 20
29.6253065844
 10
97.593349359
 20
29.672381905
 10
97.5763221154
 20
29.7179548216
 10
97.5537860577
 20
29.7620253344
 10
97.5267427885
 20
29.8035918409
 10
97.4951923077
 20
29.8436559434
 10
97.4581330128
 20
29.8822176421
 10
97.417568109
 20
29.9172737319
 10
97.375
 20
29.9478226101
 10
97.3304286859
 20
29.9733634755
 10
97.2833533654
 20
29.9943971293
 10
97.2337740385
 20
30.0109235716
 10
97.1826923077
 20
30.0224420011
 10
97.1291065705
 20
30.0294532191
 10
97.0730168269
 20
30.0319572255
 10
97.0730168269
 20
30.0319572255
 10
97.0144230769
 20
30.0294532191
 10
96.9583333333
 20
30.0224420011
 10
96.9047475962
 20
30.0104227703
 10
96.8536658654
 20
29.993896328
 10
96.805088141
 20
29.9728626742
 10
96.7590144231
 20
29.9468210075
 10
96.7154447115
 20
29.915771328
 10
96.6743790064
 20
29.880214437
 10
96.6368189103
 20
29.8406511357
 10
96.6037660256
 20
29.7970814242
 10
96.5747195513
 20
29.7495053024
 10
96.5496794872
 20
29.6984235716
 10
96.5291466346
 20
29.6433354306
 10
96.5131209936
 20
29.5842408793
 10
96.5011017628
 20
29.5216407191
 10
96.4935897436
 20
29.4550341486
  0
LWPOLYLINE
  5
104
330
1F
100
AcDbEntity
  8
0
  6
Continuous
 62
     7
100
AcDbPolyline
 90
      184
 70
   128
 43
0.0
 10
98.4166264534
 20
29.6473418409
 10
98.1923076923
 20
29.6473418409
 10
98.1923076923
 20
29.6473418409
 10
98.2118389423
 20
29.7224620332
 10
98.2358774038
 20
29.7925742127
 10
98.2634214744
 20
29.8586799819
 10
98.2954727564
 20
29.9202785396
 10
98.3310296474
 20
29.9773698857
 10
98.37109375
 20
30.0299540203
 10
98.4151642628
 20
30.0785317447
 10
98.4632411859
 20
30.1221014562
 10
98.5143229167
 20
30.1611639562
 10
98.5679086538
 20
30.1947176421
 10
98.6234975962
 20
30.2232633152
 10
98.6815905449
 20
30.2468009755
 10
98.7421875
 20
30.2648298216
 10
98.8047876603
 20
30.277850655
 10
98.8693910256
 20
30.2858634755
 10
98.9364983974
 20
30.2883674819
 10
98.9364983974
 20
30.2883674819
 10
99.0341546474
 20
30.2828586678
 10
99.1283052885
 20
30.2658314242
 10
99.2189503205
 20
30.2377865524
 10
99.3065905449
 20
30.1987240524
 10
99.3877203526
 20
30.150146328
 10
99.4588341346
 20
30.0935557832
 10
99.5204326923
 20
30.0289524178
 10
99.5725160256
 20
29.9568370332
 10
99.6135817308
 20
29.8797136357
 10
99.6431290064
 20
29.8010878344
 10
99.6606570513
 20
29.7209596293
 10
99.6666666667
 20
29.6388282191
 10
99.6666666667
 20
29.6388282191
 10
99.6621594551
 20
29.5597016165
 10
99.6486378205
 20
29.4850822255
 10
99.6256009615
 20
29.4144692447
 10
99.5935496795
 20
29.3478626742
 10
99.5524839744
 20
29.2857633152
 10
99.5024038462
 20
29.2276703665
 10
99.4433092949
 20
29.1740846293
 10
99.3746995192
 20
29.1245053024
 10
99.3746995192
 20
29.1245053024
 10
99.4533253205
 20
29.0839403986
 10
99.5249399038
 20
29.0348618729
 10
99.5890424679
 20
28.9772697255
 10
99.6456330128
 20
28.9111639562
 10
99.6456330128
 20
28.9111639562
 10
99.6806891026
 20
28.861083828
 10
99.7107371795
 20
28.8090004947
 10
99.7367788462
 20
28.7559155588
 10
99.7578125
 20
28.7008274178
 10
99.773838141
 20
28.6447376742
 10
99.7853565705
 20
28.5871455268
 10
99.7923677885
 20
28.5275501742
 10
99.7948717949
 20
28.4669532191
 10
99.7948717949
 20
28.4669532191
 10
99.7878605769
 20
28.3622857511
 10
99.7663261218
 20
28.2601222896
 10
99.7307692308
 20
28.1599620332
 10
99.6806891026
 20
28.0628065844
 10
99.6185897436
 20
27.9721615524
 10
99.546474359
 20
27.8925341486
 10
99.4633413462
 20
27.8234235716
 10
99.3701923077
 20
27.7653306229
 10
99.2690304487
 20
27.719256905
 10
99.1618589744
 20
27.6867048216
 10
99.0486778846
 20
27.6666727703
 10
98.9299879808
 20
27.6601623537
 10
98.9299879808
 20
27.6601623537
 10
98.8498597756
 20
27.6631671614
 10
98.7727363782
 20
27.6716807832
 10
98.6991185897
 20
27.6867048216
 10
98.6290064103
 20
27.7072376742
 10
98.5623998397
 20
27.7332793409
 10
98.4992988782
 20
27.7653306229
 10
98.4392027244
 20
27.8033915203
 10
98.3826121795
 20
27.8474620332
 10
98.3300280449
 20
27.8970413601
 10
98.2824519231
 20
27.9521295011
 10
98.2393830128
 20
28.0127264562
 10
98.2013221154
 20
28.0788322255
 10
98.1677684295
 20
28.1499460075
 10
98.1392227564
 20
28.227069405
 10
98.1151842949
 20
28.3092008152
 10
98.0961538462
 20
28.3973418409
 10
98.0961538462
 20
28.3973418409
 10
98.3205128205
 20
28.3973418409
 10
98.3205128205
 20
28.3973418409
 10
98.3385416667
 20
28.3397496934
 10
98.3580729167
 20
28.2861639562
 10
98.3801081731
 20
28.2365846293
 10
98.4036458333
 20
28.1915125139
 10
98.4286858974
 20
28.1504468088
 10
98.4562299679
 20
28.1133875139
 10
98.4852764423
 20
28.0803346293
 10
98.5163261218
 20
28.0517889562
 10
98.5163261218
 20
28.0517889562
 10
98.5588942308
 20
28.0202384755
 10
98.6039663462
 20
27.992694405
 10
98.6520432692
 20
27.9691567447
 10
98.7026241987
 20
27.9506270973
 10
98.7562099359
 20
27.9356030588
 10
98.8128004808
 20
27.9250862319
 10
98.8718950321
 20
27.9185758152
 10
98.933994391
 20
27.9165726101
 10
98.933994391
 20
27.9165726101
 10
99.0041065705
 20
27.9190766165
 10
99.070713141
 20
27.9265886357
 10
99.1338141026
 20
27.9386078665
 10
99.1934094551
 20
27.9561359114
 10
99.2489983974
 20
27.9781711678
 10
99.3015825321
 20
28.0057152383
 10
99.3501602564
 20
28.0377665203
 10
99.3957331731
 20
28.0748258152
 10
99.4367988782
 20
28.1153907191
 10
99.4723557692
 20
28.1574580268
 10
99.5024038462
 20
28.2010277383
 10
99.526943109
 20
28.246600655
 10
99.5459735577
 20
28.2936759755
 10
99.5594951923
 20
28.3427545011
 10
99.5680088141
 20
28.3933354306
 10
99.5705128205
 20
28.4454187639
 10
99.5705128205
 20
28.4454187639
 10
99.5650040064
 20
28.5150301421
 10
99.5489783654
 20
28.5826383152
 10
99.5219350962
 20
28.6477424819
 10
99.4838741987
 20
28.7103426421
 10
99.4367988782
 20
28.7684355909
 10
99.3827123397
 20
28.8190165203
 10
99.3206129808
 20
28.8615846293
 10
99.2515024038
 20
28.8966407191
 10
99.2129407051
 20
28.9116647575
 10
99.1688701923
 20
28.9251863921
 10
99.1202924679
 20
28.9367048216
 10
99.0662059295
 20
28.9472216486
 10
99.0076121795
 20
28.9562360716
 10
98.9440104167
 20
28.9637480909
 10
98.8748998397
 20
28.9697577062
 10
98.8012820513
 20
28.9742649178
 10
98.8012820513
 20
28.9742649178
 10
98.8012820513
 20
29.2306751742
 10
98.8012820513
 20
29.2306751742
 10
98.8939302885
 20
29.2341807832
 10
98.9820713141
 20
29.2456992127
 10
99.0662059295
 20
29.2637280588
 10
99.1458333333
 20
29.2897697255
 10
99.2184495192
 20
29.3213202062
 10
99.2800480769
 20
29.3568770973
 10
99.3311298077
 20
29.3964403986
 10
99.3716947115
 20
29.4400101101
 10
99.402744391
 20
29.4870854306
 10
99.4247796474
 20
29.535663155
 10
99.4378004808
 20
29.5867448857
 10
99.4423076923
 20
29.6398298216
 10
99.4423076923
 20
29.6398298216
 10
99.4403044872
 20
29.6788923216
 10
99.4332932692
 20
29.7169532191
 10
99.422275641
 20
29.7530109114
 10
99.4067508013
 20
29.7885678024
 10
99.38671875
 20
29.8221214883
 10
99.3621794872
 20
29.8546735716
 10
99.3331330128
 20
29.8857232511
 10
99.2995793269
 20
29.9152705268
 10
99.2630208333
 20
29.9428145973
 10
99.2239583333
 20
29.9663522575
 10
99.1823918269
 20
29.9863843088
 10
99.1383213141
 20
30.0029107511
 10
99.0922475962
 20
30.0154307832
 10
99.0436698718
 20
30.0244452062
 10
98.992588141
 20
30.0299540203
 10
98.9395032051
 20
30.0319572255
 10
98.9395032051
 20
30.0319572255
 10
98.8543669872
 20
30.0264484114
 10
98.7747395833
 20
30.0099219691
 10
98.7016225962
 20
29.9828786998
 10
98.6340144231
 20
29.9443170011
 10
98.6024639423
 20
29.9202785396
 10
98.5724158654
 20
29.8927344691
 10
98.543369391
 20
29.8616847896
 10
98.5158253205
 20
29.8261278986
 10
98.4887820513
 20
29.7870653986
 10
98.4637419872
 20
29.7444972896
 10
98.4397035256
 20
29.6979227703
 10
98.4166666667
 20
29.6473418409
  0
LWPOLYLINE
  5
105
330
1F
100
AcDbEntity
  8
0
  6
Continuous
 62
     7
100
AcDbPolyline
 90
      106
 70
   128
 43
0.0
 10
96.4935421944
 20
7.4550341486
 10
96.2692307692
 20
7.4550341486
 10
96.2692307692
 20
7.4550341486
 10
96.2752403846
 20
7.5441767768
 10
96.2882612179
 20
7.6293129947
 10
96.3077924679
 20
7.7099420011
 10
96.3348357372
 20
7.7870653986
 10
96.3683894231
 20
7.8596815844
 10
96.4089543269
 20
7.9287921614
 10
96.4565304487
 20
7.9933955268
 10
96.5111177885
 20
8.0539924819
 10
96.570713141
 20
8.1090806229
 10
96.6343149038
 20
8.1566567447
 10
96.7009214744
 20
8.1967208473
 10
96.7705328526
 20
8.2297737319
 10
96.844150641
 20
8.2553145973
 10
96.9207732372
 20
8.2738442447
 10
97.0009014423
 20
8.2848618729
 10
97.0845352564
 20
8.2883674819
 10
97.0845352564
 20
8.2883674819
 10
97.1666666667
 20
8.2848618729
 10
97.2452924679
 20
8.274345046
 10
97.3194110577
 20
8.2573178024
 10
97.3900240385
 20
8.2332793409
 10
97.4561298077
 20
8.2017288601
 10
97.5182291667
 20
8.1636679627
 10
97.5768229167
 20
8.1190966486
 10
97.6309094551
 20
8.0670133152
 10
97.6799879808
 20
8.0104227703
 10
97.7220552885
 20
7.9513282191
 10
97.7581129808
 20
7.8897296614
 10
97.7876602564
 20
7.8261278986
 10
97.8101963141
 20
7.759521328
 10
97.8267227564
 20
7.6904107511
 10
97.8362379808
 20
7.6192969691
 10
97.8397435897
 20
7.5451783793
 10
97.8397435897
 20
7.5451783793
 10
97.8332331731
 20
7.4410117127
 10
97.8137019231
 20
7.340350655
 10
97.781650641
 20
7.242694405
 10
97.7360777244
 20
7.1485437639
 10
97.70703125
 20
7.1004668409
 10
97.6724759615
 20
7.0478827062
 10
97.6314102564
 20
6.9912921614
 10
97.5843349359
 20
6.9311960075
 10
97.5307491987
 20
6.8660918409
 10
97.4716546474
 20
6.7974820652
 10
97.4060496795
 20
6.7248658793
 10
97.3344350962
 20
6.6477424819
 10
97.3344350962
 20
6.6477424819
 10
96.7089342949
 20
5.9806751742
 10
96.7089342949
 20
5.9806751742
 10
97.8717948718
 20
5.9806751742
 10
97.8717948718
 20
5.9806751742
 10
97.8717948718
 20
5.7242649178
 10
97.8717948718
 20
5.7242649178
 10
96.1730769231
 20
5.7242649178
 10
96.1730769231
 20
5.7242649178
 10
97.1426282051
 20
6.7589203665
 10
97.1426282051
 20
6.7589203665
 10
97.2132411859
 20
6.8330389562
 10
97.27734375
 20
6.9021495332
 10
97.3349358974
 20
6.9662520973
 10
97.3860176282
 20
7.0253466486
 10
97.4305889423
 20
7.0799339883
 10
97.469150641
 20
7.1290125139
 10
97.5007011218
 20
7.173583828
 10
97.5262419872
 20
7.2131471293
 10
97.5653044872
 20
7.2882673216
 10
97.593349359
 20
7.3653907191
 10
97.6098758013
 20
7.4440165203
 10
97.6153846154
 20
7.525146328
 10
97.6153846154
 20
7.525146328
 10
97.612880609
 20
7.5762280588
 10
97.6053685897
 20
7.6253065844
 10
97.593349359
 20
7.672381905
 10
97.5763221154
 20
7.7179548216
 10
97.5537860577
 20
7.7620253344
 10
97.5267427885
 20
7.8035918409
 10
97.4951923077
 20
7.8436559434
 10
97.4581330128
 20
7.8822176421
 10
97.417568109
 20
7.9172737319
 10
97.375
 20
7.9478226101
 10
97.3304286859
 20
7.9733634755
 10
97.2833533654
 20
7.9943971293
 10
97.2337740385
 20
8.0109235716
 10
97.1826923077
 20
8.0224420011
 10
97.1291065705
 20
8.0294532191
 10
97.0730168269
 20
8.0319572255
 10
97.0730168269
 20
8.0319572255
 10
97.0144230769
 20
8.0294532191
 10
96.9583333333
 20
8.0224420011
 10
96.9047475962
 20
8.0104227703
 10
96.8536658654
 20
7.993896328
 10
96.805088141
 20
7.9728626742
 10
96.7590144231
 20
7.9468210075
 10
96.7154447115
 20
7.915771328
 10
96.6743790064
 20
7.880214437
 10
96.6368189103
 20
7.8406511357
 10
96.6037660256
 20
7.7970814242
 10
96.5747195513
 20
7.7495053024
 10
96.5496794872
 20
7.6984235716
 10
96.5291466346
 20
7.6433354306
 10
96.5131209936
 20
7.5842408793
 10
96.5011017628
 20
7.5216407191
 10
96.4935897436
 20
7.4550341486
  0
LWPOLYLINE
  5
106
330
1F
100
AcDbEntity
  8
0
  6
Continuous
 62
     7
100
AcDbPolyline
 90
       20
 70
   128
 43
0.0
 10
99.4607806206
 20
8.2883674819
 10
99.5064102564
 20
8.2883674819
 10
99.5064102564
 20
8.2883674819
 10
99.5064102564
 20
6.5575982511
 10
99.5064102564
 20
6.5575982511
 10
99.7948717949
 20
6.5575982511
 10
99.7948717949
 20
6.5575982511
 10
99.7948717949
 20
6.3011879947
 10
99.7948717949
 20
6.3011879947
 10
99.5064102564
 20
6.3011879947
 10
99.5064102564
 20
6.3011879947
 10
99.5064102564
 20
5.7242649178
 10
99.5064102564
 20
5.7242649178
 10
99.2820512821
 20
5.7242649178
 10
99.2820512821
 20
5.7242649178
 10
99.2820512821
 20
6.3011879947
 10
99.2820512821
 20
6.3011879947
 10
98.0961538462
 20
6.3011879947
 10
98.0961538462
 20
6.3011879947
 10
99.4608373397
 20
8.2883674819
  0
LWPOLYLINE
  5
107
330
1F
100
AcDbEntity
  8
0
  6
Continuous
 62
     7
100
AcDbPolyline
 90
        6
 70
   128
 43
0.0
 10
99.2820262909
 20
6.5575982511
 10
99.2820512821
 20
7.642333828
 10
99.2820512821
 20
7.642333828
 10
98.5373597756
 20
6.5575982511
 10
98.5373597756
 20
6.5575982511
 10
99.2820512821
 20
6.5575982511
  0
LWPOLYLINE
  5
108
330
1F
100
AcDbEntity
  8
0
  6
Continuous
 62
     7
100
AcDbPolyline
 90
       16
 70
   128
 43
0.0
 10
5.0192289054
 20
3.3461538462
 10
5.0192307692
 20
3.5
 10
5.0192307692
 20
3.5
 10
5.8076923077
 20
3.5
 10
5.8076923077
 20
3.5
 10
5.1787860577
 20
2.1538461538
 10
5.1787860577
 20
2.1538461538
 10
5.7884615385
 20
2.1538461538
 10
5.7884615385
 20
2.1538461538
 10
5.7884615385
 20
2.0
 10
5.7884615385
 20
2.0
 10
4.9615384615
 20
2.0
 10
4.9615384615
 20
2.0
 10
5.5901442308
 20
3.3461538462
 10
5.5901442308
 20
3.3461538462
 10
5.0192307692
 20
3.3461538462
  0
LINE
  5
109
330
1F
100
AcDbEntity
  8
0
  6
Continuous
 62
     7
100
AcDbLine
 10
6.7980769231
 20
3.5384615385
 30
0.0
 11
6.7980736494
 21
3.5384615385
 31
0.0
  0
LWPOLYLINE
  5
10A
330
1F
100
AcDbEntity
  8
0
  6
Continuous
 62
     7
100
AcDbPolyline
 90
       92
 70
   128
 43
0.0
 10
6.8046860397
 20
3.3846153846
 10
6.7620192308
 20
3.3834134615
 10
6.7199519231
 20
3.3792067308
 10
6.6784855769
 20
3.3725961538
 10
6.6376201923
 20
3.36328125
 10
6.5973557692
 20
3.3509615385
 10
6.5573918269
 20
3.3362379808
 10
6.5183293269
 20
3.3188100962
 10
6.4795673077
 20
3.2986778846
 10
6.4423076923
 20
3.2764423077
 10
6.4071514423
 20
3.2521033654
 10
6.3740985577
 20
3.2259615385
 10
6.3431490385
 20
3.1980168269
 10
6.3143028846
 20
3.1682692308
 10
6.2872596154
 20
3.13671875
 10
6.2626201923
 20
3.1030649038
 10
6.2400841346
 20
3.0676081731
 10
6.2199519231
 20
3.0309495192
 10
6.2022235577
 20
2.9930889423
 10
6.1875
 20
2.9540264423
 10
6.1754807692
 20
2.9140625
 10
6.1658653846
 20
2.8731971154
 10
6.1592548077
 20
2.8311298077
 10
6.1550480769
 20
2.7881610577
 10
6.1538461538
 20
2.7439903846
 10
6.1538461538
 20
2.7439903846
 10
6.1568509615
 20
2.6790865385
 10
6.1658653846
 20
2.6168870192
 10
6.1805889423
 20
2.5573918269
 10
6.2016225962
 20
2.5003004808
 10
6.2283653846
 20
2.4456129808
 10
6.2611177885
 20
2.3936298077
 10
6.2998798077
 20
2.3443509615
 10
6.3446514423
 20
2.2974759615
 10
6.3936298077
 20
2.2548076923
 10
6.4450120192
 20
2.2178485577
 10
6.4987980769
 20
2.1865985577
 10
6.5549879808
 20
2.1610576923
 10
6.6138822115
 20
2.1409254808
 10
6.6748798077
 20
2.1268028846
 10
6.7385817308
 20
2.1180889423
 10
6.8046875
 20
2.1153846154
 10
6.8046875
 20
2.1153846154
 10
6.8491586538
 20
2.1165865385
 10
6.8927283654
 20
2.1204927885
 10
6.9356971154
 20
2.1271033654
 10
6.9777644231
 20
2.1364182692
 10
7.0189302885
 20
2.1481370192
 10
7.0591947115
 20
2.1622596154
 10
7.0985576923
 20
2.1793870192
 10
7.1373197115
 20
2.1989182692
 10
7.1745793269
 20
2.2208533654
 10
7.2097355769
 20
2.2445913462
 10
7.2424879808
 20
2.2704326923
 10
7.2734375
 20
2.2980769231
 10
7.3022836538
 20
2.3275240385
 10
7.3290264423
 20
2.3590745192
 10
7.3533653846
 20
2.3924278846
 10
7.3759014423
 20
2.4278846154
 10
7.3960336538
 20
2.46484375
 10
7.4134615385
 20
2.5027043269
 10
7.4281850962
 20
2.5414663462
 10
7.4402043269
 20
2.5814302885
 10
7.4495192308
 20
2.6222956731
 10
7.4561298077
 20
2.6640625
 10
7.4603365385
 20
2.70703125
 10
7.4615384615
 20
2.7509014423
 10
7.4615384615
 20
2.7509014423
 10
7.4603365385
 20
2.7944711538
 10
7.4561298077
 20
2.8371394231
 10
7.4495192308
 20
2.8786057692
 10
7.4402043269
 20
2.9191706731
 10
7.4281850962
 20
2.9585336538
 10
7.4134615385
 20
2.9966947115
 10
7.3960336538
 20
3.0339543269
 10
7.3759014423
 20
3.0703125
 10
7.3533653846
 20
3.1051682692
 10
7.3287259615
 20
3.1382211538
 10
7.3016826923
 20
3.1694711538
 10
7.2728365385
 20
3.1989182692
 10
7.2415865385
 20
3.2265625
 10
7.2079326923
 20
3.2524038462
 10
7.1724759615
 20
3.2764423077
 10
7.1346153846
 20
3.2986778846
 10
7.0955528846
 20
3.3188100962
 10
7.0555889423
 20
3.3362379808
 10
7.0153245192
 20
3.3509615385
 10
6.9744591346
 20
3.36328125
 10
6.9326923077
 20
3.3725961538
 10
6.890625
 20
3.3792067308
 10
6.8479567308
 20
3.3834134615
 10
6.8046875
 20
3.3846153846
  0
LWPOLYLINE
  5
10B
330
1F
100
AcDbEntity
  8
0
  6
Continuous
 62
     7
100
AcDbPolyline
 90
       20
 70
   128
 43
0.0
 10
7.9038441181
 20
2.0
 10
7.9038461538
 20
3.5
 10
7.9038461538
 20
3.5
 10
7.9320913462
 20
3.5
 10
7.9320913462
 20
3.5
 10
8.9230769231
 20
2.3194110577
 10
8.9230769231
 20
2.3194110577
 10
8.9230769231
 20
3.5
 10
8.9230769231
 20
3.5
 10
9.0576923077
 20
3.5
 10
9.0576923077
 20
3.5
 10
9.0576923077
 20
2.0
 10
9.0576923077
 20
2.0
 10
9.0270432692
 20
2.0
 10
9.0270432692
 20
2.0
 10
8.0384615385
 20
3.1778846154
 10
8.0384615385
 20
3.1778846154
 10
8.0384615385
 20
2.0
 10
8.0384615385
 20
2.0
 10
7.9038461538
 20
2.0
  0
LWPOLYLINE
  5
10C
330
1F
100
AcDbEntity
  8
0
  6
Continuous
 62
     7
100
AcDbPolyline
 90
       24
 70
   128
 43
0.0
 10
9.442307055
 20
3.5
 10
10.2884615385
 20
3.5
 10
10.2884615385
 20
3.5
 10
10.2884615385
 20
3.3461538462
 10
10.2884615385
 20
3.3461538462
 10
9.5769230769
 20
3.3461538462
 10
9.5769230769
 20
3.3461538462
 10
9.5769230769
 20
2.8846153846
 10
9.5769230769
 20
2.8846153846
 10
10.2884615385
 20
2.8846153846
 10
10.2884615385
 20
2.8846153846
 10
10.2884615385
 20
2.7307692308
 10
10.2884615385
 20
2.7307692308
 10
9.5769230769
 20
2.7307692308
 10
9.5769230769
 20
2.7307692308
 10
9.5769230769
 20
2.1538461538
 10
9.5769230769
 20
2.1538461538
 10
10.2884615385
 20
2.1538461538
 10
10.2884615385
 20
2.1538461538
 10
10.2884615385
 20
2.0
 10
10.2884615385
 20
2.0
 10
9.4423076923
 20
2.0
 10
9.4423076923
 20
2.0
 10
9.4423076923
 20
3.5
  0
LWPOLYLINE
  5
10D
330
1F
100
AcDbEntity
  8
0
  6
Continuous
 62
     7
100
AcDbPolyline
 90
       12
 70
   128
 43
0.0
 10
11.3188028336
 20
3.5
 10
11.5961538462
 20
3.5
 10
11.5961538462
 20
3.5
 10
11.5961538462
 20
2.0
 10
11.5961538462
 20
2.0
 10
11.4615384615
 20
2.0
 10
11.4615384615
 20
2.0
 10
11.4615384615
 20
3.3461538462
 10
11.4615384615
 20
3.3461538462
 10
11.2307692308
 20
3.3461538462
 10
11.2307692308
 20
3.3461538462
 10
11.3188100962
 20
3.5
  0
LWPOLYLINE
  5
10E
330
1F
100
AcDbEntity
  8
0
  6
Continuous
 62
     7
100
AcDbPolyline
 90
       16
 70
   128
 43
0.0
 10
22.0192223787
 20
3.3461538462
 10
22.0192307692
 20
3.5
 10
22.0192307692
 20
3.5
 10
22.8076923077
 20
3.5
 10
22.8076923077
 20
3.5
 10
22.1787860577
 20
2.1538461538
 10
22.1787860577
 20
2.1538461538
 10
22.7884615385
 20
2.1538461538
 10
22.7884615385
 20
2.1538461538
 10
22.7884615385
 20
2.0
 10
22.7884615385
 20
2.0
 10
21.9615384615
 20
2.0
 10
21.9615384615
 20
2.0
 10
22.5901442308
 20
3.3461538462
 10
22.5901442308
 20
3.3461538462
 10
22.0192307692
 20
3.3461538462
  0
LINE
  5
10F
330
1F
100
AcDbEntity
  8
0
  6
Continuous
 62
     7
100
AcDbLine
 10
23.7980769231
 20
3.5384615385
 30
0.0
 11
23.7980633974
 21
3.5384615385
 31
0.0
  0
LWPOLYLINE
  5
110
330
1F
100
AcDbEntity
  8
0
  6
Continuous
 62
     7
100
AcDbPolyline
 90
       92
 70
   128
 43
0.0
 10
23.804679513
 20
3.3846153846
 10
23.7620192308
 20
3.3834134615
 10
23.7199519231
 20
3.3792067308
 10
23.6784855769
 20
3.3725961538
 10
23.6376201923
 20
3.36328125
 10
23.5973557692
 20
3.3509615385
 10
23.5573918269
 20
3.3362379808
 10
23.5183293269
 20
3.3188100962
 10
23.4795673077
 20
3.2986778846
 10
23.4423076923
 20
3.2764423077
 10
23.4071514423
 20
3.2521033654
 10
23.3740985577
 20
3.2259615385
 10
23.3431490385
 20
3.1980168269
 10
23.3143028846
 20
3.1682692308
 10
23.2872596154
 20
3.13671875
 10
23.2626201923
 20
3.1030649038
 10
23.2400841346
 20
3.0676081731
 10
23.2199519231
 20
3.0309495192
 10
23.2022235577
 20
2.9930889423
 10
23.1875
 20
2.9540264423
 10
23.1754807692
 20
2.9140625
 10
23.1658653846
 20
2.8731971154
 10
23.1592548077
 20
2.8311298077
 10
23.1550480769
 20
2.7881610577
 10
23.1538461538
 20
2.7439903846
 10
23.1538461538
 20
2.7439903846
 10
23.1568509615
 20
2.6790865385
 10
23.1658653846
 20
2.6168870192
 10
23.1805889423
 20
2.5573918269
 10
23.2016225962
 20
2.5003004808
 10
23.2283653846
 20
2.4456129808
 10
23.2611177885
 20
2.3936298077
 10
23.2998798077
 20
2.3443509615
 10
23.3446514423
 20
2.2974759615
 10
23.3936298077
 20
2.2548076923
 10
23.4450120192
 20
2.2178485577
 10
23.4987980769
 20
2.1865985577
 10
23.5549879808
 20
2.1610576923
 10
23.6138822115
 20
2.1409254808
 10
23.6748798077
 20
2.1268028846
 10
23.7385817308
 20
2.1180889423
 10
23.8046875
 20
2.1153846154
 10
23.8046875
 20
2.1153846154
 10
23.8491586538
 20
2.1165865385
 10
23.8927283654
 20
2.1204927885
 10
23.9356971154
 20
2.1271033654
 10
23.9777644231
 20
2.1364182692
 10
24.0189302885
 20
2.1481370192
 10
24.0591947115
 20
2.1622596154
 10
24.0985576923
 20
2.1793870192
 10
24.1373197115
 20
2.1989182692
 10
24.1745793269
 20
2.2208533654
 10
24.2097355769
 20
2.2445913462
 10
24.2424879808
 20
2.2704326923
 10
24.2734375
 20
2.2980769231
 10
24.3022836538
 20
2.3275240385
 10
24.3290264423
 20
2.3590745192
 10
24.3533653846
 20
2.3924278846
 10
24.3759014423
 20
2.4278846154
 10
24.3960336538
 20
2.46484375
 10
24.4134615385
 20
2.5027043269
 10
24.4281850962
 20
2.5414663462
 10
24.4402043269
 20
2.5814302885
 10
24.4495192308
 20
2.6222956731
 10
24.4561298077
 20
2.6640625
 10
24.4603365385
 20
2.70703125
 10
24.4615384615
 20
2.7509014423
 10
24.4615384615
 20
2.7509014423
 10
24.4603365385
 20
2.7944711538
 10
24.4561298077
 20
2.8371394231
 10
24.4495192308
 20
2.8786057692
 10
24.4402043269
 20
2.9191706731
 10
24.4281850962
 20
2.9585336538
 10
24.4134615385
 20
2.9966947115
 10
24.3960336538
 20
3.0339543269
 10
24.3759014423
 20
3.0703125
 10
24.3533653846
 20
3.1051682692
 10
24.3287259615
 20
3.1382211538
 10
24.3016826923
 20
3.1694711538
 10
24.2728365385
 20
3.1989182692
 10
24.2415865385
 20
3.2265625
 10
24.2079326923
 20
3.2524038462
 10
24.1724759615
 20
3.2764423077
 10
24.1346153846
 20
3.2986778846
 10
24.0955528846
 20
3.3188100962
 10
24.0555889423
 20
3.3362379808
 10
24.0153245192
 20
3.3509615385
 10
23.9744591346
 20
3.36328125
 10
23.9326923077
 20
3.3725961538
 10
23.890625
 20
3.3792067308
 10
23.8479567308
 20
3.3834134615
 10
23.8046875
 20
3.3846153846
  0
LWPOLYLINE
  5
111
330
1F
100
AcDbEntity
  8
0
  6
Continuous
 62
     7
100
AcDbPolyline
 90
       20
 70
   128
 43
0.0
 10
24.9038338661
 20
2.0
 10
24.9038461538
 20
3.5
 10
24.9038461538
 20
3.5
 10
24.9320913462
 20
3.5
 10
24.9320913462
 20
3.5
 10
25.9230769231
 20
2.3194110577
 10
25.9230769231
 20
2.3194110577
 10
25.9230769231
 20
3.5
 10
25.9230769231
 20
3.5
 10
26.0576923077
 20
3.5
 10
26.0576923077
 20
3.5
 10
26.0576923077
 20
2.0
 10
26.0576923077
 20
2.0
 10
26.0270432692
 20
2.0
 10
26.0270432692
 20
2.0
 10
25.0384615385
 20
3.1778846154
 10
25.0384615385
 20
3.1778846154
 10
25.0384615385
 20
2.0
 10
25.0384615385
 20
2.0
 10
24.9038461538
 20
2.0
  0
LWPOLYLINE
  5
112
330
1F
100
AcDbEntity
  8
0
  6
Continuous
 62
     7
100
AcDbPolyline
 90
       24
 70
   128
 43
0.0
 10
26.4423042536
 20
3.5
 10
27.2884615385
 20
3.5
 10
27.2884615385
 20
3.5
 10
27.2884615385
 20
3.3461538462
 10
27.2884615385
 20
3.3461538462
 10
26.5769230769
 20
3.3461538462
 10
26.5769230769
 20
3.3461538462
 10
26.5769230769
 20
2.8846153846
 10
26.5769230769
 20
2.8846153846
 10
27.2884615385
 20
2.8846153846
 10
27.2884615385
 20
2.8846153846
 10
27.2884615385
 20
2.7307692308
 10
27.2884615385
 20
2.7307692308
 10
26.5769230769
 20
2.7307692308
 10
26.5769230769
 20
2.7307692308
 10
26.5769230769
 20
2.1538461538
 10
26.5769230769
 20
2.1538461538
 10
27.2884615385
 20
2.1538461538
 10
27.2884615385
 20
2.1538461538
 10
27.2884615385
 20
2.0
 10
27.2884615385
 20
2.0
 10
26.4423076923
 20
2.0
 10
26.4423076923
 20
2.0
 10
26.4423076923
 20
3.5
  0
LWPOLYLINE
  5
113
330
1F
100
AcDbEntity
  8
0
  6
Continuous
 62
     7
100
AcDbPolyline
 90
      106
 70
   128
 43
0.0
 10
28.1922966242
 20
3.0384615385
 10
28.0576923077
 20
3.0384615385
 10
28.0576923077
 20
3.0384615385
 10
28.0612980769
 20
3.0919471154
 10
28.0691105769
 20
3.1430288462
 10
28.0808293269
 20
3.19140625
 10
28.0970552885
 20
3.2376802885
 10
28.1171875
 20
3.28125
 10
28.1415264423
 20
3.3227163462
 10
28.1700721154
 20
3.3614783654
 10
28.2028245192
 20
3.3978365385
 10
28.2385817308
 20
3.4308894231
 10
28.2767427885
 20
3.4594350962
 10
28.3167067308
 20
3.4834735577
 10
28.3584735577
 20
3.5033052885
 10
28.4026442308
 20
3.5186298077
 10
28.4486177885
 20
3.5297475962
 10
28.4966947115
 20
3.5363581731
 10
28.546875
 20
3.5384615385
 10
28.546875
 20
3.5384615385
 10
28.5961538462
 20
3.5363581731
 10
28.6433293269
 20
3.5300480769
 10
28.6878004808
 20
3.5198317308
 10
28.7301682692
 20
3.5054086538
 10
28.7698317308
 20
3.4864783654
 10
28.8070913462
 20
3.4636418269
 10
28.8422475962
 20
3.4368990385
 10
28.8746995192
 20
3.4056490385
 10
28.9041466346
 20
3.3716947115
 10
28.9293870192
 20
3.3362379808
 10
28.9510216346
 20
3.2992788462
 10
28.96875
 20
3.2611177885
 10
28.9822716346
 20
3.2211538462
 10
28.9921875
 20
3.1796875
 10
28.9978966346
 20
3.1370192308
 10
29.0
 20
3.0925480769
 10
29.0
 20
3.0925480769
 10
28.99609375
 20
3.0300480769
 10
28.984375
 20
2.9696514423
 10
28.9651442308
 20
2.9110576923
 10
28.9378004808
 20
2.8545673077
 10
28.9203725962
 20
2.8257211538
 10
28.8996394231
 20
2.7941706731
 10
28.875
 20
2.7602163462
 10
28.8467548077
 20
2.7241586538
 10
28.8146033654
 20
2.6850961538
 10
28.7791466346
 20
2.6439302885
 10
28.7397836538
 20
2.6003605769
 10
28.6968149038
 20
2.5540865385
 10
28.6968149038
 20
2.5540865385
 10
28.3215144231
 20
2.1538461538
 10
28.3215144231
 20
2.1538461538
 10
29.0192307692
 20
2.1538461538
 10
29.0192307692
 20
2.1538461538
 10
29.0192307692
 20
2.0
 10
29.0192307692
 20
2.0
 10
28.0
 20
2.0
 10
28.0
 20
2.0
 10
28.5817307692
 20
2.6207932692
 10
28.5817307692
 20
2.6207932692
 10
28.6240985577
 20
2.6652644231
 10
28.6625600962
 20
2.7067307692
 10
28.6971153846
 20
2.7451923077
 10
28.7277644231
 20
2.7806490385
 10
28.7545072115
 20
2.8134014423
 10
28.7776442308
 20
2.8428485577
 10
28.7965745192
 20
2.8695913462
 10
28.8118990385
 20
2.8933293269
 10
28.8353365385
 20
2.9384014423
 10
28.8521634615
 20
2.9846754808
 10
28.8620793269
 20
3.0318509615
 10
28.8653846154
 20
3.0805288462
 10
28.8653846154
 20
3.0805288462
 10
28.8638822115
 20
3.1111778846
 10
28.859375
 20
3.140625
 10
28.8521634615
 20
3.1688701923
 10
28.8419471154
 20
3.1962139423
 10
28.8284254808
 20
3.22265625
 10
28.8121995192
 20
3.2475961538
 10
28.7932692308
 20
3.2716346154
 10
28.7710336538
 20
3.2947716346
 10
28.7466947115
 20
3.3158052885
 10
28.7211538462
 20
3.3341346154
 10
28.6944110577
 20
3.3494591346
 10
28.6661658654
 20
3.3620793269
 10
28.6364182692
 20
3.3719951923
 10
28.6057692308
 20
3.37890625
 10
28.5736177885
 20
3.3831129808
 10
28.5399639423
 20
3.3846153846
 10
28.5399639423
 20
3.3846153846
 10
28.5048076923
 20
3.3831129808
 10
28.4711538462
 20
3.37890625
 10
28.4390024038
 20
3.3716947115
 10
28.4083533654
 20
3.3617788462
 10
28.3792067308
 20
3.3491586538
 10
28.3515625
 20
3.3335336538
 10
28.3254206731
 20
3.3149038462
 10
28.30078125
 20
3.2935697115
 10
28.2782451923
 20
3.2698317308
 10
28.2584134615
 20
3.2436899038
 10
28.2409855769
 20
3.2151442308
 10
28.2259615385
 20
3.1844951923
 10
28.2136418269
 20
3.1514423077
 10
28.2040264423
 20
3.1159855769
 10
28.1968149038
 20
3.0784254808
 10
28.1923076923
 20
3.0384615385
  0
LWPOLYLINE
  5
114
330
1F
100
AcDbEntity
  8
0
  6
Continuous
 62
     7
100
AcDbPolyline
 90
       16
 70
   128
 43
0.0
 10
39.0192270279
 20
3.3461538462
 10
39.0192307692
 20
3.5
 10
39.0192307692
 20
3.5
 10
39.8076923077
 20
3.5
 10
39.8076923077
 20
3.5
 10
39.1787860577
 20
2.1538461538
 10
39.1787860577
 20
2.1538461538
 10
39.7884615385
 20
2.1538461538
 10
39.7884615385
 20
2.1538461538
 10
39.7884615385
 20
2.0
 10
39.7884615385
 20
2.0
 10
38.9615384615
 20
2.0
 10
38.9615384615
 20
2.0
 10
39.5901442308
 20
3.3461538462
 10
39.5901442308
 20
3.3461538462
 10
39.0192307692
 20
3.3461538462
  0
LINE
  5
115
330
1F
100
AcDbEntity
  8
0
  6
Continuous
 62
     7
100
AcDbLine
 10
40.7980769231
 20
3.5384615385
 30
0.0
 11
40.7980680466
 21
3.5384615385
 31
0.0
  0
LWPOLYLINE
  5
116
330
1F
100
AcDbEntity
  8
0
  6
Continuous
 62
     7
100
AcDbPolyline
 90
       92
 70
   128
 43
0.0
 10
40.8046841621
 20
3.3846153846
 10
40.7620192308
 20
3.3834134615
 10
40.7199519231
 20
3.3792067308
 10
40.6784855769
 20
3.3725961538
 10
40.6376201923
 20
3.36328125
 10
40.5973557692
 20
3.3509615385
 10
40.5573918269
 20
3.3362379808
 10
40.5183293269
 20
3.3188100962
 10
40.4795673077
 20
3.2986778846
 10
40.4423076923
 20
3.2764423077
 10
40.4071514423
 20
3.2521033654
 10
40.3740985577
 20
3.2259615385
 10
40.3431490385
 20
3.1980168269
 10
40.3143028846
 20
3.1682692308
 10
40.2872596154
 20
3.13671875
 10
40.2626201923
 20
3.1030649038
 10
40.2400841346
 20
3.0676081731
 10
40.2199519231
 20
3.0309495192
 10
40.2022235577
 20
2.9930889423
 10
40.1875
 20
2.9540264423
 10
40.1754807692
 20
2.9140625
 10
40.1658653846
 20
2.8731971154
 10
40.1592548077
 20
2.8311298077
 10
40.1550480769
 20
2.7881610577
 10
40.1538461538
 20
2.7439903846
 10
40.1538461538
 20
2.7439903846
 10
40.1568509615
 20
2.6790865385
 10
40.1658653846
 20
2.6168870192
 10
40.1805889423
 20
2.5573918269
 10
40.2016225962
 20
2.5003004808
 10
40.2283653846
 20
2.4456129808
 10
40.2611177885
 20
2.3936298077
 10
40.2998798077
 20
2.3443509615
 10
40.3446514423
 20
2.2974759615
 10
40.3936298077
 20
2.2548076923
 10
40.4450120192
 20
2.2178485577
 10
40.4987980769
 20
2.1865985577
 10
40.5549879808
 20
2.1610576923
 10
40.6138822115
 20
2.1409254808
 10
40.6748798077
 20
2.1268028846
 10
40.7385817308
 20
2.1180889423
 10
40.8046875
 20
2.1153846154
 10
40.8046875
 20
2.1153846154
 10
40.8491586538
 20
2.1165865385
 10
40.8927283654
 20
2.1204927885
 10
40.9356971154
 20
2.1271033654
 10
40.9777644231
 20
2.1364182692
 10
41.0189302885
 20
2.1481370192
 10
41.0591947115
 20
2.1622596154
 10
41.0985576923
 20
2.1793870192
 10
41.1373197115
 20
2.1989182692
 10
41.1745793269
 20
2.2208533654
 10
41.2097355769
 20
2.2445913462
 10
41.2424879808
 20
2.2704326923
 10
41.2734375
 20
2.2980769231
 10
41.3022836538
 20
2.3275240385
 10
41.3290264423
 20
2.3590745192
 10
41.3533653846
 20
2.3924278846
 10
41.3759014423
 20
2.4278846154
 10
41.3960336538
 20
2.46484375
 10
41.4134615385
 20
2.5027043269
 10
41.4281850962
 20
2.5414663462
 10
41.4402043269
 20
2.5814302885
 10
41.4495192308
 20
2.6222956731
 10
41.4561298077
 20
2.6640625
 10
41.4603365385
 20
2.70703125
 10
41.4615384615
 20
2.7509014423
 10
41.4615384615
 20
2.7509014423
 10
41.4603365385
 20
2.7944711538
 10
41.4561298077
 20
2.8371394231
 10
41.4495192308
 20
2.8786057692
 10
41.4402043269
 20
2.9191706731
 10
41.4281850962
 20
2.9585336538
 10
41.4134615385
 20
2.9966947115
 10
41.3960336538
 20
3.0339543269
 10
41.3759014423
 20
3.0703125
 10
41.3533653846
 20
3.1051682692
 10
41.3287259615
 20
3.1382211538
 10
41.3016826923
 20
3.1694711538
 10
41.2728365385
 20
3.1989182692
 10
41.2415865385
 20
3.2265625
 10
41.2079326923
 20
3.2524038462
 10
41.1724759615
 20
3.2764423077
 10
41.1346153846
 20
3.2986778846
 10
41.0955528846
 20
3.3188100962
 10
41.0555889423
 20
3.3362379808
 10
41.0153245192
 20
3.3509615385
 10
40.9744591346
 20
3.36328125
 10
40.9326923077
 20
3.3725961538
 10
40.890625
 20
3.3792067308
 10
40.8479567308
 20
3.3834134615
 10
40.8046875
 20
3.3846153846
  0
LWPOLYLINE
  5
117
330
1F
100
AcDbEntity
  8
0
  6
Continuous
 62
     7
100
AcDbPolyline
 90
       20
 70
   128
 43
0.0
 10
41.9038236141
 20
2.0
 10
41.9038461538
 20
3.5
 10
41.9038461538
 20
3.5
 10
41.9320913462
 20
3.5
 10
41.9320913462
 20
3.5
 10
42.9230769231
 20
2.3194110577
 10
42.9230769231
 20
2.3194110577
 10
42.9230769231
 20
3.5
 10
42.9230769231
 20
3.5
 10
43.0576923077
 20
3.5
 10
43.0576923077
 20
3.5
 10
43.0576923077
 20
2.0
 10
43.0576923077
 20
2.0
 10
43.0270432692
 20
2.0
 10
43.0270432692
 20
2.0
 10
42.0384615385
 20
3.1778846154
 10
42.0384615385
 20
3.1778846154
 10
42.0384615385
 20
2.0
 10
42.0384615385
 20
2.0
 10
41.9038461538
 20
2.0
  0
LWPOLYLINE
  5
118
330
1F
100
AcDbEntity
  8
0
  6
Continuous
 62
     7
100
AcDbPolyline
 90
       24
 70
   128
 43
0.0
 10
43.4422791004
 20
3.5
 10
44.2884615385
 20
3.5
 10
44.2884615385
 20
3.5
 10
44.2884615385
 20
3.3461538462
 10
44.2884615385
 20
3.3461538462
 10
43.5769230769
 20
3.3461538462
 10
43.5769230769
 20
3.3461538462
 10
43.5769230769
 20
2.8846153846
 10
43.5769230769
 20
2.8846153846
 10
44.2884615385
 20
2.8846153846
 10
44.2884615385
 20
2.8846153846
 10
44.2884615385
 20
2.7307692308
 10
44.2884615385
 20
2.7307692308
 10
43.5769230769
 20
2.7307692308
 10
43.5769230769
 20
2.7307692308
 10
43.5769230769
 20
2.1538461538
 10
43.5769230769
 20
2.1538461538
 10
44.2884615385
 20
2.1538461538
 10
44.2884615385
 20
2.1538461538
 10
44.2884615385
 20
2.0
 10
44.2884615385
 20
2.0
 10
43.4423076923
 20
2.0
 10
43.4423076923
 20
2.0
 10
43.4423076923
 20
3.5
  0
LWPOLYLINE
  5
119
330
1F
100
AcDbEntity
  8
0
  6
Continuous
 62
     7
100
AcDbPolyline
 90
      184
 70
   128
 43
0.0
 10
45.1923012733
 20
3.1538461538
 10
45.0576923077
 20
3.1538461538
 10
45.0576923077
 20
3.1538461538
 10
45.0694110577
 20
3.1989182692
 10
45.0838341346
 20
3.2409855769
 10
45.1003605769
 20
3.2806490385
 10
45.1195913462
 20
3.3176081731
 10
45.1409254808
 20
3.3518629808
 10
45.1649639423
 20
3.3834134615
 10
45.19140625
 20
3.4125600962
 10
45.2202524038
 20
3.4387019231
 10
45.2509014423
 20
3.4621394231
 10
45.2830528846
 20
3.4822716346
 10
45.31640625
 20
3.4993990385
 10
45.3512620192
 20
3.5135216346
 10
45.3876201923
 20
3.5243389423
 10
45.4251802885
 20
3.5321514423
 10
45.4639423077
 20
3.5369591346
 10
45.5042067308
 20
3.5384615385
 10
45.5042067308
 20
3.5384615385
 10
45.5628004808
 20
3.53515625
 10
45.6192908654
 20
3.5249399038
 10
45.6736778846
 20
3.5081129808
 10
45.7262620192
 20
3.4846754808
 10
45.7749399038
 20
3.4555288462
 10
45.8176081731
 20
3.4215745192
 10
45.8545673077
 20
3.3828125
 10
45.8858173077
 20
3.3395432692
 10
45.9104567308
 20
3.2932692308
 10
45.9281850962
 20
3.24609375
 10
45.9387019231
 20
3.1980168269
 10
45.9423076923
 20
3.1487379808
 10
45.9423076923
 20
3.1487379808
 10
45.9396033654
 20
3.1012620192
 10
45.9314903846
 20
3.0564903846
 10
45.9176682692
 20
3.0141225962
 10
45.8984375
 20
2.9741586538
 10
45.8737980769
 20
2.9368990385
 10
45.84375
 20
2.9020432692
 10
45.8082932692
 20
2.8698918269
 10
45.7671274038
 20
2.8401442308
 10
45.7671274038
 20
2.8401442308
 10
45.8143028846
 20
2.8158052885
 10
45.8572716346
 20
2.7863581731
 10
45.8957331731
 20
2.7518028846
 10
45.9296875
 20
2.7121394231
 10
45.9296875
 20
2.7121394231
 10
45.9507211538
 20
2.6820913462
 10
45.96875
 20
2.6508413462
 10
45.984375
 20
2.6189903846
 10
45.9969951923
 20
2.5859375
 10
46.0066105769
 20
2.5522836538
 10
46.0135216346
 20
2.5177283654
 10
46.0177283654
 20
2.4819711538
 10
46.0192307692
 20
2.4456129808
 10
46.0192307692
 20
2.4456129808
 10
46.0150240385
 20
2.3828125
 10
46.0021033654
 20
2.3215144231
 10
45.9807692308
 20
2.2614182692
 10
45.9507211538
 20
2.203125
 10
45.9134615385
 20
2.1487379808
 10
45.8701923077
 20
2.1009615385
 10
45.8203125
 20
2.0594951923
 10
45.7644230769
 20
2.0246394231
 10
45.7037259615
 20
1.9969951923
 10
45.6394230769
 20
1.9774639423
 10
45.5715144231
 20
1.9654447115
 10
45.5003004808
 20
1.9615384615
 10
45.5003004808
 20
1.9615384615
 10
45.4522235577
 20
1.9633413462
 10
45.4059495192
 20
1.9684495192
 10
45.3617788462
 20
1.9774639423
 10
45.3197115385
 20
1.9897836538
 10
45.2797475962
 20
2.0054086538
 10
45.2418870192
 20
2.0246394231
 10
45.2058293269
 20
2.0474759615
 10
45.171875
 20
2.0739182692
 10
45.1403245192
 20
2.1036658654
 10
45.1117788462
 20
2.13671875
 10
45.0859375
 20
2.1730769231
 10
45.0631009615
 20
2.2127403846
 10
45.04296875
 20
2.2554086538
 10
45.0258413462
 20
2.3016826923
 10
45.0114182692
 20
2.3509615385
 10
45.0
 20
2.4038461538
 10
45.0
 20
2.4038461538
 10
45.1346153846
 20
2.4038461538
 10
45.1346153846
 20
2.4038461538
 10
45.1454326923
 20
2.3692908654
 10
45.1571514423
 20
2.3371394231
 10
45.1703725962
 20
2.3073918269
 10
45.1844951923
 20
2.2803485577
 10
45.1995192308
 20
2.2557091346
 10
45.2160456731
 20
2.2334735577
 10
45.2334735577
 20
2.2136418269
 10
45.2521033654
 20
2.1965144231
 10
45.2521033654
 20
2.1965144231
 10
45.2776442308
 20
2.1775841346
 10
45.3046875
 20
2.1610576923
 10
45.3335336538
 20
2.1469350962
 10
45.3638822115
 20
2.1358173077
 10
45.3960336538
 20
2.1268028846
 10
45.4299879808
 20
2.1204927885
 10
45.4654447115
 20
2.1165865385
 10
45.5027043269
 20
2.1153846154
 10
45.5027043269
 20
2.1153846154
 10
45.5447716346
 20
2.1168870192
 10
45.5847355769
 20
2.1213942308
 10
45.6225961538
 20
2.1286057692
 10
45.6583533654
 20
2.1391225962
 10
45.6917067308
 20
2.15234375
 10
45.7232572115
 20
2.1688701923
 10
45.7524038462
 20
2.1881009615
 10
45.7797475962
 20
2.2103365385
 10
45.8043870192
 20
2.2346754808
 10
45.8257211538
 20
2.2599158654
 10
45.84375
 20
2.2860576923
 10
45.8584735577
 20
2.3134014423
 10
45.8698918269
 20
2.3416466346
 10
45.8780048077
 20
2.37109375
 10
45.8831129808
 20
2.4014423077
 10
45.8846153846
 20
2.4326923077
 10
45.8846153846
 20
2.4326923077
 10
45.8813100962
 20
2.4744591346
 10
45.8716947115
 20
2.5150240385
 10
45.85546875
 20
2.5540865385
 10
45.8326322115
 20
2.5916466346
 10
45.8043870192
 20
2.6265024038
 10
45.7719350962
 20
2.6568509615
 10
45.7346754808
 20
2.6823918269
 10
45.6932091346
 20
2.7034254808
 10
45.6700721154
 20
2.7124399038
 10
45.6436298077
 20
2.7205528846
 10
45.6144831731
 20
2.7274639423
 10
45.58203125
 20
2.7337740385
 10
45.546875
 20
2.7391826923
 10
45.5087139423
 20
2.7436899038
 10
45.4672475962
 20
2.7472956731
 10
45.4230769231
 20
2.75
 10
45.4230769231
 20
2.75
 10
45.4230769231
 20
2.9038461538
 10
45.4230769231
 20
2.9038461538
 10
45.4786658654
 20
2.9059495192
 10
45.5315504808
 20
2.9128605769
 10
45.58203125
 20
2.9236778846
 10
45.6298076923
 20
2.9393028846
 10
45.6733774038
 20
2.9582331731
 10
45.7103365385
 20
2.9795673077
 10
45.7409855769
 20
3.0033052885
 10
45.7653245192
 20
3.0294471154
 10
45.7839543269
 20
3.0576923077
 10
45.7971754808
 20
3.0868389423
 10
45.8049879808
 20
3.1174879808
 10
45.8076923077
 20
3.1493389423
 10
45.8076923077
 20
3.1493389423
 10
45.8064903846
 20
3.1727764423
 10
45.8022836538
 20
3.1956129808
 10
45.7956730769
 20
3.2172475962
 10
45.7863581731
 20
3.2385817308
 10
45.7743389423
 20
3.2587139423
 10
45.7596153846
 20
3.2782451923
 10
45.7421875
 20
3.296875
 10
45.7220552885
 20
3.3146033654
 10
45.7001201923
 20
3.3311298077
 10
45.6766826923
 20
3.3452524038
 10
45.6517427885
 20
3.3572716346
 10
45.6253004808
 20
3.3671875
 10
45.59765625
 20
3.3746995192
 10
45.5685096154
 20
3.3801081731
 10
45.5378605769
 20
3.3834134615
 10
45.5060096154
 20
3.3846153846
 10
45.5060096154
 20
3.3846153846
 10
45.4549278846
 20
3.3813100962
 10
45.4071514423
 20
3.3713942308
 10
45.36328125
 20
3.3551682692
 10
45.3227163462
 20
3.33203125
 10
45.3037860577
 20
3.3176081731
 10
45.2857572115
 20
3.3010817308
 10
45.2683293269
 20
3.2824519231
 10
45.2518028846
 20
3.2611177885
 10
45.2355769231
 20
3.2376802885
 10
45.2205528846
 20
3.2121394231
 10
45.2061298077
 20
3.1841947115
 10
45.1923076923
 20
3.1538461538
  0
LWPOLYLINE
  5
11A
330
1F
100
AcDbEntity
  8
0
  6
Continuous
 62
     7
100
AcDbPolyline
 90
       16
 70
   128
 43
0.0
 10
56.0192167759
 20
3.3461538462
 10
56.0192307692
 20
3.5
 10
56.0192307692
 20
3.5
 10
56.8076923077
 20
3.5
 10
56.8076923077
 20
3.5
 10
56.1787860577
 20
2.1538461538
 10
56.1787860577
 20
2.1538461538
 10
56.7884615385
 20
2.1538461538
 10
56.7884615385
 20
2.1538461538
 10
56.7884615385
 20
2.0
 10
56.7884615385
 20
2.0
 10
55.9615384615
 20
2.0
 10
55.9615384615
 20
2.0
 10
56.5901442308
 20
3.3461538462
 10
56.5901442308
 20
3.3461538462
 10
56.0192307692
 20
3.3461538462
  0
LINE
  5
11B
330
1F
100
AcDbEntity
  8
0
  6
Continuous
 62
     7
100
AcDbLine
 10
57.7980769231
 20
3.5384615385
 30
0.0
 11
57.7980577946
 21
3.5384615385
 31
0.0
  0
LWPOLYLINE
  5
11C
330
1F
100
AcDbEntity
  8
0
  6
Continuous
 62
     7
100
AcDbPolyline
 90
       92
 70
   128
 43
0.0
 10
57.8046739101
 20
3.3846153846
 10
57.7620192308
 20
3.3834134615
 10
57.7199519231
 20
3.3792067308
 10
57.6784855769
 20
3.3725961538
 10
57.6376201923
 20
3.36328125
 10
57.5973557692
 20
3.3509615385
 10
57.5573918269
 20
3.3362379808
 10
57.5183293269
 20
3.3188100962
 10
57.4795673077
 20
3.2986778846
 10
57.4423076923
 20
3.2764423077
 10
57.4071514423
 20
3.2521033654
 10
57.3740985577
 20
3.2259615385
 10
57.3431490385
 20
3.1980168269
 10
57.3143028846
 20
3.1682692308
 10
57.2872596154
 20
3.13671875
 10
57.2626201923
 20
3.1030649038
 10
57.2400841346
 20
3.0676081731
 10
57.2199519231
 20
3.0309495192
 10
57.2022235577
 20
2.9930889423
 10
57.1875
 20
2.9540264423
 10
57.1754807692
 20
2.9140625
 10
57.1658653846
 20
2.8731971154
 10
57.1592548077
 20
2.8311298077
 10
57.1550480769
 20
2.7881610577
 10
57.1538461538
 20
2.7439903846
 10
57.1538461538
 20
2.7439903846
 10
57.1568509615
 20
2.6790865385
 10
57.1658653846
 20
2.6168870192
 10
57.1805889423
 20
2.5573918269
 10
57.2016225962
 20
2.5003004808
 10
57.2283653846
 20
2.4456129808
 10
57.2611177885
 20
2.3936298077
 10
57.2998798077
 20
2.3443509615
 10
57.3446514423
 20
2.2974759615
 10
57.3936298077
 20
2.2548076923
 10
57.4450120192
 20
2.2178485577
 10
57.4987980769
 20
2.1865985577
 10
57.5549879808
 20
2.1610576923
 10
57.6138822115
 20
2.1409254808
 10
57.6748798077
 20
2.1268028846
 10
57.7385817308
 20
2.1180889423
 10
57.8046875
 20
2.1153846154
 10
57.8046875
 20
2.1153846154
 10
57.8491586538
 20
2.1165865385
 10
57.8927283654
 20
2.1204927885
 10
57.9356971154
 20
2.1271033654
 10
57.9777644231
 20
2.1364182692
 10
58.0189302885
 20
2.1481370192
 10
58.0591947115
 20
2.1622596154
 10
58.0985576923
 20
2.1793870192
 10
58.1373197115
 20
2.1989182692
 10
58.1745793269
 20
2.2208533654
 10
58.2097355769
 20
2.2445913462
 10
58.2424879808
 20
2.2704326923
 10
58.2734375
 20
2.2980769231
 10
58.3022836538
 20
2.3275240385
 10
58.3290264423
 20
2.3590745192
 10
58.3533653846
 20
2.3924278846
 10
58.3759014423
 20
2.4278846154
 10
58.3960336538
 20
2.46484375
 10
58.4134615385
 20
2.5027043269
 10
58.4281850962
 20
2.5414663462
 10
58.4402043269
 20
2.5814302885
 10
58.4495192308
 20
2.6222956731
 10
58.4561298077
 20
2.6640625
 10
58.4603365385
 20
2.70703125
 10
58.4615384615
 20
2.7509014423
 10
58.4615384615
 20
2.7509014423
 10
58.4603365385
 20
2.7944711538
 10
58.4561298077
 20
2.8371394231
 10
58.4495192308
 20
2.8786057692
 10
58.4402043269
 20
2.9191706731
 10
58.4281850962
 20
2.9585336538
 10
58.4134615385
 20
2.9966947115
 10
58.3960336538
 20
3.0339543269
 10
58.3759014423
 20
3.0703125
 10
58.3533653846
 20
3.1051682692
 10
58.3287259615
 20
3.1382211538
 10
58.3016826923
 20
3.1694711538
 10
58.2728365385
 20
3.1989182692
 10
58.2415865385
 20
3.2265625
 10
58.2079326923
 20
3.2524038462
 10
58.1724759615
 20
3.2764423077
 10
58.1346153846
 20
3.2986778846
 10
58.0955528846
 20
3.3188100962
 10
58.0555889423
 20
3.3362379808
 10
58.0153245192
 20
3.3509615385
 10
57.9744591346
 20
3.36328125
 10
57.9326923077
 20
3.3725961538
 10
57.890625
 20
3.3792067308
 10
57.8479567308
 20
3.3834134615
 10
57.8046875
 20
3.3846153846
  0
LWPOLYLINE
  5
11D
330
1F
100
AcDbEntity
  8
0
  6
Continuous
 62
     7
100
AcDbPolyline
 90
       20
 70
   128
 43
0.0
 10
58.9038431644
 20
2.0
 10
58.9038461538
 20
3.5
 10
58.9038461538
 20
3.5
 10
58.9320913462
 20
3.5
 10
58.9320913462
 20
3.5
 10
59.9230769231
 20
2.3194110577
 10
59.9230769231
 20
2.3194110577
 10
59.9230769231
 20
3.5
 10
59.9230769231
 20
3.5
 10
60.0576923077
 20
3.5
 10
60.0576923077
 20
3.5
 10
60.0576923077
 20
2.0
 10
60.0576923077
 20
2.0
 10
60.0270432692
 20
2.0
 10
60.0270432692
 20
2.0
 10
59.0384615385
 20
3.1778846154
 10
59.0384615385
 20
3.1778846154
 10
59.0384615385
 20
2.0
 10
59.0384615385
 20
2.0
 10
58.9038461538
 20
2.0
  0
LWPOLYLINE
  5
11E
330
1F
100
AcDbEntity
  8
0
  6
Continuous
 62
     7
100
AcDbPolyline
 90
       24
 70
   128
 43
0.0
 10
60.4422986507
 20
3.5
 10
61.2884615385
 20
3.5
 10
61.2884615385
 20
3.5
 10
61.2884615385
 20
3.3461538462
 10
61.2884615385
 20
3.3461538462
 10
60.5769230769
 20
3.3461538462
 10
60.5769230769
 20
3.3461538462
 10
60.5769230769
 20
2.8846153846
 10
60.5769230769
 20
2.8846153846
 10
61.2884615385
 20
2.8846153846
 10
61.2884615385
 20
2.8846153846
 10
61.2884615385
 20
2.7307692308
 10
61.2884615385
 20
2.7307692308
 10
60.5769230769
 20
2.7307692308
 10
60.5769230769
 20
2.7307692308
 10
60.5769230769
 20
2.1538461538
 10
60.5769230769
 20
2.1538461538
 10
61.2884615385
 20
2.1538461538
 10
61.2884615385
 20
2.1538461538
 10
61.2884615385
 20
2.0
 10
61.2884615385
 20
2.0
 10
60.4423076923
 20
2.0
 10
60.4423076923
 20
2.0
 10
60.4423076923
 20
3.5
  0
LWPOLYLINE
  5
11F
330
1F
100
AcDbEntity
  8
0
  6
Continuous
 62
     7
100
AcDbPolyline
 90
       20
 70
   128
 43
0.0
 10
62.8187656403
 20
3.5384615385
 10
62.8461538462
 20
3.5384615385
 10
62.8461538462
 20
3.5384615385
 10
62.8461538462
 20
2.5
 10
62.8461538462
 20
2.5
 10
63.0192307692
 20
2.5
 10
63.0192307692
 20
2.5
 10
63.0192307692
 20
2.3461538462
 10
63.0192307692
 20
2.3461538462
 10
62.8461538462
 20
2.3461538462
 10
62.8461538462
 20
2.3461538462
 10
62.8461538462
 20
2.0
 10
62.8461538462
 20
2.0
 10
62.7115384615
 20
2.0
 10
62.7115384615
 20
2.0
 10
62.7115384615
 20
2.3461538462
 10
62.7115384615
 20
2.3461538462
 10
62.0
 20
2.3461538462
 10
62.0
 20
2.3461538462
 10
62.8188100962
 20
3.5384615385
  0
LWPOLYLINE
  5
120
330
1F
100
AcDbEntity
  8
0
  6
Continuous
 62
     7
100
AcDbPolyline
 90
        6
 70
   128
 43
0.0
 10
62.7115368843
 20
2.5
 10
62.7115384615
 20
3.1508413462
 10
62.7115384615
 20
3.1508413462
 10
62.2647235577
 20
2.5
 10
62.2647235577
 20
2.5
 10
62.7115384615
 20
2.5
  0
LWPOLYLINE
  5
121
330
1F
100
AcDbEntity
  8
0
  6
Continuous
 62
     7
100
AcDbPolyline
 90
       16
 70
   128
 43
0.0
 10
73.0192065239
 20
3.3461538462
 10
73.0192307692
 20
3.5
 10
73.0192307692
 20
3.5
 10
73.8076923077
 20
3.5
 10
73.8076923077
 20
3.5
 10
73.1787860577
 20
2.1538461538
 10
73.1787860577
 20
2.1538461538
 10
73.7884615385
 20
2.1538461538
 10
73.7884615385
 20
2.1538461538
 10
73.7884615385
 20
2.0
 10
73.7884615385
 20
2.0
 10
72.9615384615
 20
2.0
 10
72.9615384615
 20
2.0
 10
73.5901442308
 20
3.3461538462
 10
73.5901442308
 20
3.3461538462
 10
73.0192307692
 20
3.3461538462
  0
LINE
  5
122
330
1F
100
AcDbEntity
  8
0
  6
Continuous
 62
     7
100
AcDbLine
 10
74.7980769231
 20
3.5384615385
 30
0.0
 11
74.7980475426
 21
3.5384615385
 31
0.0
  0
LWPOLYLINE
  5
123
330
1F
100
AcDbEntity
  8
0
  6
Continuous
 62
     7
100
AcDbPolyline
 90
       92
 70
   128
 43
0.0
 10
74.8046636581
 20
3.3846153846
 10
74.7620192308
 20
3.3834134615
 10
74.7199519231
 20
3.3792067308
 10
74.6784855769
 20
3.3725961538
 10
74.6376201923
 20
3.36328125
 10
74.5973557692
 20
3.3509615385
 10
74.5573918269
 20
3.3362379808
 10
74.5183293269
 20
3.3188100962
 10
74.4795673077
 20
3.2986778846
 10
74.4423076923
 20
3.2764423077
 10
74.4071514423
 20
3.2521033654
 10
74.3740985577
 20
3.2259615385
 10
74.3431490385
 20
3.1980168269
 10
74.3143028846
 20
3.1682692308
 10
74.2872596154
 20
3.13671875
 10
74.2626201923
 20
3.1030649038
 10
74.2400841346
 20
3.0676081731
 10
74.2199519231
 20
3.0309495192
 10
74.2022235577
 20
2.9930889423
 10
74.1875
 20
2.9540264423
 10
74.1754807692
 20
2.9140625
 10
74.1658653846
 20
2.8731971154
 10
74.1592548077
 20
2.8311298077
 10
74.1550480769
 20
2.7881610577
 10
74.1538461538
 20
2.7439903846
 10
74.1538461538
 20
2.7439903846
 10
74.1568509615
 20
2.6790865385
 10
74.1658653846
 20
2.6168870192
 10
74.1805889423
 20
2.5573918269
 10
74.2016225962
 20
2.5003004808
 10
74.2283653846
 20
2.4456129808
 10
74.2611177885
 20
2.3936298077
 10
74.2998798077
 20
2.3443509615
 10
74.3446514423
 20
2.2974759615
 10
74.3936298077
 20
2.2548076923
 10
74.4450120192
 20
2.2178485577
 10
74.4987980769
 20
2.1865985577
 10
74.5549879808
 20
2.1610576923
 10
74.6138822115
 20
2.1409254808
 10
74.6748798077
 20
2.1268028846
 10
74.7385817308
 20
2.1180889423
 10
74.8046875
 20
2.1153846154
 10
74.8046875
 20
2.1153846154
 10
74.8491586538
 20
2.1165865385
 10
74.8927283654
 20
2.1204927885
 10
74.9356971154
 20
2.1271033654
 10
74.9777644231
 20
2.1364182692
 10
75.0189302885
 20
2.1481370192
 10
75.0591947115
 20
2.1622596154
 10
75.0985576923
 20
2.1793870192
 10
75.1373197115
 20
2.1989182692
 10
75.1745793269
 20
2.2208533654
 10
75.2097355769
 20
2.2445913462
 10
75.2424879808
 20
2.2704326923
 10
75.2734375
 20
2.2980769231
 10
75.3022836538
 20
2.3275240385
 10
75.3290264423
 20
2.3590745192
 10
75.3533653846
 20
2.3924278846
 10
75.3759014423
 20
2.4278846154
 10
75.3960336538
 20
2.46484375
 10
75.4134615385
 20
2.5027043269
 10
75.4281850962
 20
2.5414663462
 10
75.4402043269
 20
2.5814302885
 10
75.4495192308
 20
2.6222956731
 10
75.4561298077
 20
2.6640625
 10
75.4603365385
 20
2.70703125
 10
75.4615384615
 20
2.7509014423
 10
75.4615384615
 20
2.7509014423
 10
75.4603365385
 20
2.7944711538
 10
75.4561298077
 20
2.8371394231
 10
75.4495192308
 20
2.8786057692
 10
75.4402043269
 20
2.9191706731
 10
75.4281850962
 20
2.9585336538
 10
75.4134615385
 20
2.9966947115
 10
75.3960336538
 20
3.0339543269
 10
75.3759014423
 20
3.0703125
 10
75.3533653846
 20
3.1051682692
 10
75.3287259615
 20
3.1382211538
 10
75.3016826923
 20
3.1694711538
 10
75.2728365385
 20
3.1989182692
 10
75.2415865385
 20
3.2265625
 10
75.2079326923
 20
3.2524038462
 10
75.1724759615
 20
3.2764423077
 10
75.1346153846
 20
3.2986778846
 10
75.0955528846
 20
3.3188100962
 10
75.0555889423
 20
3.3362379808
 10
75.0153245192
 20
3.3509615385
 10
74.9744591346
 20
3.36328125
 10
74.9326923077
 20
3.3725961538
 10
74.890625
 20
3.3792067308
 10
74.8479567308
 20
3.3834134615
 10
74.8046875
 20
3.3846153846
  0
LWPOLYLINE
  5
124
330
1F
100
AcDbEntity
  8
0
  6
Continuous
 62
     7
100
AcDbPolyline
 90
       20
 70
   128
 43
0.0
 10
75.9038329124
 20
2.0
 10
75.9038461538
 20
3.5
 10
75.9038461538
 20
3.5
 10
75.9320913462
 20
3.5
 10
75.9320913462
 20
3.5
 10
76.9230769231
 20
2.3194110577
 10
76.9230769231
 20
2.3194110577
 10
76.9230769231
 20
3.5
 10
76.9230769231
 20
3.5
 10
77.0576923077
 20
3.5
 10
77.0576923077
 20
3.5
 10
77.0576923077
 20
2.0
 10
77.0576923077
 20
2.0
 10
77.0270432692
 20
2.0
 10
77.0270432692
 20
2.0
 10
76.0384615385
 20
3.1778846154
 10
76.0384615385
 20
3.1778846154
 10
76.0384615385
 20
2.0
 10
76.0384615385
 20
2.0
 10
75.9038461538
 20
2.0
  0
LWPOLYLINE
  5
125
330
1F
100
AcDbEntity
  8
0
  6
Continuous
 62
     7
100
AcDbPolyline
 90
       24
 70
   128
 43
0.0
 10
77.4422883987
 20
3.5
 10
78.2884615385
 20
3.5
 10
78.2884615385
 20
3.5
 10
78.2884615385
 20
3.3461538462
 10
78.2884615385
 20
3.3461538462
 10
77.5769230769
 20
3.3461538462
 10
77.5769230769
 20
3.3461538462
 10
77.5769230769
 20
2.8846153846
 10
77.5769230769
 20
2.8846153846
 10
78.2884615385
 20
2.8846153846
 10
78.2884615385
 20
2.8846153846
 10
78.2884615385
 20
2.7307692308
 10
78.2884615385
 20
2.7307692308
 10
77.5769230769
 20
2.7307692308
 10
77.5769230769
 20
2.7307692308
 10
77.5769230769
 20
2.1538461538
 10
77.5769230769
 20
2.1538461538
 10
78.2884615385
 20
2.1538461538
 10
78.2884615385
 20
2.1538461538
 10
78.2884615385
 20
2.0
 10
78.2884615385
 20
2.0
 10
77.4423076923
 20
2.0
 10
77.4423076923
 20
2.0
 10
77.4423076923
 20
3.5
  0
LWPOLYLINE
  5
126
330
1F
100
AcDbEntity
  8
0
  6
Continuous
 62
     7
100
AcDbPolyline
 90
      132
 70
   128
 43
0.0
 10
79.9422860146
 20
3.5
 10
79.9423076923
 20
3.3461538462
 10
79.9423076923
 20
3.3461538462
 10
79.4323918269
 20
3.3461538462
 10
79.4323918269
 20
3.3461538462
 10
79.3512620192
 20
2.9516225962
 10
79.3512620192
 20
2.9516225962
 10
79.3990384615
 20
2.9642427885
 10
79.4444110577
 20
2.9735576923
 10
79.4873798077
 20
2.9789663462
 10
79.5279447115
 20
2.9807692308
 10
79.5279447115
 20
2.9807692308
 10
79.578125
 20
2.9786658654
 10
79.6262019231
 20
2.9720552885
 10
79.671875
 20
2.9612379808
 10
79.7154447115
 20
2.9462139423
 10
79.7566105769
 20
2.9269831731
 10
79.7953725962
 20
2.9032451923
 10
79.83203125
 20
2.8753004808
 10
79.8665865385
 20
2.8428485577
 10
79.8978365385
 20
2.8070913462
 10
79.9248798077
 20
2.7692307692
 10
79.9480168269
 20
2.7286658654
 10
79.9666466346
 20
2.6859975962
 10
79.9813701923
 20
2.640625
 10
79.9915865385
 20
2.5928485577
 10
79.9978966346
 20
2.5426682692
 10
80.0
 20
2.4900841346
 10
80.0
 20
2.4900841346
 10
79.9987980769
 20
2.4534254808
 10
79.9957932692
 20
2.4173677885
 10
79.9903846154
 20
2.3822115385
 10
79.9828725962
 20
2.34765625
 10
79.9732572115
 20
2.3140024038
 10
79.9615384615
 20
2.28125
 10
79.9474158654
 20
2.2490985577
 10
79.9314903846
 20
2.2175480769
 10
79.9137620192
 20
2.1875
 10
79.8942307692
 20
2.1592548077
 10
79.8734975962
 20
2.1328125
 10
79.8512620192
 20
2.1081730769
 10
79.8272235577
 20
2.0853365385
 10
79.8016826923
 20
2.0643028846
 10
79.7749399038
 20
2.0450721154
 10
79.7463942308
 20
2.0276442308
 10
79.7166466346
 20
2.0120192308
 10
79.6856971154
 20
1.9987980769
 10
79.6538461538
 20
1.9873798077
 10
79.6207932692
 20
1.9780649038
 10
79.5865384615
 20
1.9708533654
 10
79.5510817308
 20
1.9657451923
 10
79.5144230769
 20
1.9624399038
 10
79.4768629808
 20
1.9615384615
 10
79.4768629808
 20
1.9615384615
 10
79.4320913462
 20
1.9633413462
 10
79.3891225962
 20
1.9690504808
 10
79.3479567308
 20
1.9780649038
 10
79.30859375
 20
1.9909855769
 10
79.2710336538
 20
2.0075120192
 10
79.2352764423
 20
2.0279447115
 10
79.2010216346
 20
2.0516826923
 10
79.1688701923
 20
2.0793269231
 10
79.1391225962
 20
2.1099759615
 10
79.1126802885
 20
2.1427283654
 10
79.0892427885
 20
2.1775841346
 10
79.0688100962
 20
2.21484375
 10
79.0516826923
 20
2.25390625
 10
79.0378605769
 20
2.2953725962
 10
79.0270432692
 20
2.3389423077
 10
79.0192307692
 20
2.3846153846
 10
79.0192307692
 20
2.3846153846
 10
79.1538461538
 20
2.3846153846
 10
79.1538461538
 20
2.3846153846
 10
79.1646634615
 20
2.3419471154
 10
79.1784855769
 20
2.3037860577
 10
79.1956129808
 20
2.26953125
 10
79.2157451923
 20
2.2394831731
 10
79.2394831731
 20
2.2130408654
 10
79.2668269231
 20
2.1893028846
 10
79.2977764423
 20
2.16796875
 10
79.3323317308
 20
2.1496394231
 10
79.3689903846
 20
2.1346153846
 10
79.4068509615
 20
2.1240985577
 10
79.4453125
 20
2.1174879808
 10
79.4846754808
 20
2.1153846154
 10
79.4846754808
 20
2.1153846154
 10
79.5231370192
 20
2.1171875
 10
79.5600961538
 20
2.1222956731
 10
79.5958533654
 20
2.1307091346
 10
79.6301081731
 20
2.1427283654
 10
79.6628605769
 20
2.1577524038
 10
79.6944110577
 20
2.1766826923
 10
79.7244591346
 20
2.1986177885
 10
79.7533052885
 20
2.2241586538
 10
79.7794471154
 20
2.2521033654
 10
79.8022836538
 20
2.2818509615
 10
79.8215144231
 20
2.3134014423
 10
79.8374399038
 20
2.3464543269
 10
79.8497596154
 20
2.3813100962
 10
79.8584735577
 20
2.4176682692
 10
79.8635817308
 20
2.4558293269
 10
79.8653846154
 20
2.4957932692
 10
79.8653846154
 20
2.4957932692
 10
79.8638822115
 20
2.5318509615
 10
79.859375
 20
2.5661057692
 10
79.8515625
 20
2.5985576923
 10
79.8407451923
 20
2.6292067308
 10
79.8269230769
 20
2.6583533654
 10
79.8100961538
 20
2.6856971154
 10
79.7899639423
 20
2.7112379808
 10
79.7668269231
 20
2.7349759615
 10
79.7412860577
 20
2.7566105769
 10
79.7133413462
 20
2.7752403846
 10
79.68359375
 20
2.7908653846
 10
79.6517427885
 20
2.8040865385
 10
79.6177884615
 20
2.8140024038
 10
79.5817307692
 20
2.8212139423
 10
79.5438701923
 20
2.8254206731
 10
79.5036057692
 20
2.8269230769
 10
79.5036057692
 20
2.8269230769
 10
79.46875
 20
2.8257211538
 10
79.4317908654
 20
2.8221153846
 10
79.3933293269
 20
2.8161057692
 10
79.3527644231
 20
2.8076923077
 10
79.3106971154
 20
2.796875
 10
79.2665264423
 20
2.7836538462
 10
79.2208533654
 20
2.7680288462
 10
79.1730769231
 20
2.75
 10
79.1730769231
 20
2.75
 10
79.3269230769
 20
3.5
 10
79.3269230769
 20
3.5
 10
79.9423076923
 20
3.5
  0
LWPOLYLINE
  5
127
330
1F
100
AcDbEntity
  8
0
  6
Continuous
 62
     7
100
AcDbPolyline
 90
       16
 70
   128
 43
0.0
 10
90.0192260742
 20
3.3461538462
 10
90.0192307692
 20
3.5
 10
90.0192307692
 20
3.5
 10
90.8076923077
 20
3.5
 10
90.8076923077
 20
3.5
 10
90.1787860577
 20
2.1538461538
 10
90.1787860577
 20
2.1538461538
 10
90.7884615385
 20
2.1538461538
 10
90.7884615385
 20
2.1538461538
 10
90.7884615385
 20
2.0
 10
90.7884615385
 20
2.0
 10
89.9615384615
 20
2.0
 10
89.9615384615
 20
2.0
 10
90.5901442308
 20
3.3461538462
 10
90.5901442308
 20
3.3461538462
 10
90.0192307692
 20
3.3461538462
  0
LINE
  5
128
330
1F
100
AcDbEntity
  8
0
  6
Continuous
 62
     7
100
AcDbLine
 10
91.7980769231
 20
3.5384615385
 30
0.0
 11
91.7980670929
 21
3.5384615385
 31
0.0
  0
LWPOLYLINE
  5
129
330
1F
100
AcDbEntity
  8
0
  6
Continuous
 62
     7
100
AcDbPolyline
 90
       92
 70
   128
 43
0.0
 10
91.8046832085
 20
3.3846153846
 10
91.7620192308
 20
3.3834134615
 10
91.7199519231
 20
3.3792067308
 10
91.6784855769
 20
3.3725961538
 10
91.6376201923
 20
3.36328125
 10
91.5973557692
 20
3.3509615385
 10
91.5573918269
 20
3.3362379808
 10
91.5183293269
 20
3.3188100962
 10
91.4795673077
 20
3.2986778846
 10
91.4423076923
 20
3.2764423077
 10
91.4071514423
 20
3.2521033654
 10
91.3740985577
 20
3.2259615385
 10
91.3431490385
 20
3.1980168269
 10
91.3143028846
 20
3.1682692308
 10
91.2872596154
 20
3.13671875
 10
91.2626201923
 20
3.1030649038
 10
91.2400841346
 20
3.0676081731
 10
91.2199519231
 20
3.0309495192
 10
91.2022235577
 20
2.9930889423
 10
91.1875
 20
2.9540264423
 10
91.1754807692
 20
2.9140625
 10
91.1658653846
 20
2.8731971154
 10
91.1592548077
 20
2.8311298077
 10
91.1550480769
 20
2.7881610577
 10
91.1538461538
 20
2.7439903846
 10
91.1538461538
 20
2.7439903846
 10
91.1568509615
 20
2.6790865385
 10
91.1658653846
 20
2.6168870192
 10
91.1805889423
 20
2.5573918269
 10
91.2016225962
 20
2.5003004808
 10
91.2283653846
 20
2.4456129808
 10
91.2611177885
 20
2.3936298077
 10
91.2998798077
 20
2.3443509615
 10
91.3446514423
 20
2.2974759615
 10
91.3936298077
 20
2.2548076923
 10
91.4450120192
 20
2.2178485577
 10
91.4987980769
 20
2.1865985577
 10
91.5549879808
 20
2.1610576923
 10
91.6138822115
 20
2.1409254808
 10
91.6748798077
 20
2.1268028846
 10
91.7385817308
 20
2.1180889423
 10
91.8046875
 20
2.1153846154
 10
91.8046875
 20
2.1153846154
 10
91.8491586538
 20
2.1165865385
 10
91.8927283654
 20
2.1204927885
 10
91.9356971154
 20
2.1271033654
 10
91.9777644231
 20
2.1364182692
 10
92.0189302885
 20
2.1481370192
 10
92.0591947115
 20
2.1622596154
 10
92.0985576923
 20
2.1793870192
 10
92.1373197115
 20
2.1989182692
 10
92.1745793269
 20
2.2208533654
 10
92.2097355769
 20
2.2445913462
 10
92.2424879808
 20
2.2704326923
 10
92.2734375
 20
2.2980769231
 10
92.3022836538
 20
2.3275240385
 10
92.3290264423
 20
2.3590745192
 10
92.3533653846
 20
2.3924278846
 10
92.3759014423
 20
2.4278846154
 10
92.3960336538
 20
2.46484375
 10
92.4134615385
 20
2.5027043269
 10
92.4281850962
 20
2.5414663462
 10
92.4402043269
 20
2.5814302885
 10
92.4495192308
 20
2.6222956731
 10
92.4561298077
 20
2.6640625
 10
92.4603365385
 20
2.70703125
 10
92.4615384615
 20
2.7509014423
 10
92.4615384615
 20
2.7509014423
 10
92.4603365385
 20
2.7944711538
 10
92.4561298077
 20
2.8371394231
 10
92.4495192308
 20
2.8786057692
 10
92.4402043269
 20
2.9191706731
 10
92.4281850962
 20
2.9585336538
 10
92.4134615385
 20
2.9966947115
 10
92.3960336538
 20
3.0339543269
 10
92.3759014423
 20
3.0703125
 10
92.3533653846
 20
3.1051682692
 10
92.3287259615
 20
3.1382211538
 10
92.3016826923
 20
3.1694711538
 10
92.2728365385
 20
3.1989182692
 10
92.2415865385
 20
3.2265625
 10
92.2079326923
 20
3.2524038462
 10
92.1724759615
 20
3.2764423077
 10
92.1346153846
 20
3.2986778846
 10
92.0955528846
 20
3.3188100962
 10
92.0555889423
 20
3.3362379808
 10
92.0153245192
 20
3.3509615385
 10
91.9744591346
 20
3.36328125
 10
91.9326923077
 20
3.3725961538
 10
91.890625
 20
3.3792067308
 10
91.8479567308
 20
3.3834134615
 10
91.8046875
 20
3.3846153846
  0
LWPOLYLINE
  5
12A
330
1F
100
AcDbEntity
  8
0
  6
Continuous
 62
     7
100
AcDbPolyline
 90
       20
 70
   128
 43
0.0
 10
92.9037928581
 20
2.0
 10
92.9038461538
 20
3.5
 10
92.9038461538
 20
3.5
 10
92.9320913462
 20
3.5
 10
92.9320913462
 20
3.5
 10
93.9230769231
 20
2.3194110577
 10
93.9230769231
 20
2.3194110577
 10
93.9230769231
 20
3.5
 10
93.9230769231
 20
3.5
 10
94.0576923077
 20
3.5
 10
94.0576923077
 20
3.5
 10
94.0576923077
 20
2.0
 10
94.0576923077
 20
2.0
 10
94.0270432692
 20
2.0
 10
94.0270432692
 20
2.0
 10
93.0384615385
 20
3.1778846154
 10
93.0384615385
 20
3.1778846154
 10
93.0384615385
 20
2.0
 10
93.0384615385
 20
2.0
 10
92.9038461538
 20
2.0
  0
LWPOLYLINE
  5
12B
330
1F
100
AcDbEntity
  8
0
  6
Continuous
 62
     7
100
AcDbPolyline
 90
       24
 70
   128
 43
0.0
 10
94.4422483444
 20
3.5
 10
95.2884615385
 20
3.5
 10
95.2884615385
 20
3.5
 10
95.2884615385
 20
3.3461538462
 10
95.2884615385
 20
3.3461538462
 10
94.5769230769
 20
3.3461538462
 10
94.5769230769
 20
3.3461538462
 10
94.5769230769
 20
2.8846153846
 10
94.5769230769
 20
2.8846153846
 10
95.2884615385
 20
2.8846153846
 10
95.2884615385
 20
2.8846153846
 10
95.2884615385
 20
2.7307692308
 10
95.2884615385
 20
2.7307692308
 10
94.5769230769
 20
2.7307692308
 10
94.5769230769
 20
2.7307692308
 10
94.5769230769
 20
2.1538461538
 10
94.5769230769
 20
2.1538461538
 10
95.2884615385
 20
2.1538461538
 10
95.2884615385
 20
2.1538461538
 10
95.2884615385
 20
2.0
 10
95.2884615385
 20
2.0
 10
94.4423076923
 20
2.0
 10
94.4423076923
 20
2.0
 10
94.4423076923
 20
3.5
  0
LWPOLYLINE
  5
12C
330
1F
100
AcDbEntity
  8
0
  6
Continuous
 62
     7
100
AcDbPolyline
 90
       65
 70
   128
 43
0.0
 10
96.69226408
 20
3.5384615385
 10
96.7962740385
 20
3.45703125
 10
96.7962740385
 20
3.45703125
 10
96.3999399038
 20
2.8509615385
 10
96.3999399038
 20
2.8509615385
 10
96.4792668269
 20
2.8617788462
 10
96.5552884615
 20
2.8653846154
 10
96.5552884615
 20
2.8653846154
 10
96.6009615385
 20
2.86328125
 10
96.64453125
 20
2.8572716346
 10
96.6865985577
 20
2.8473557692
 10
96.7268629808
 20
2.8332331731
 10
96.7653245192
 20
2.8152043269
 10
96.8022836538
 20
2.7932692308
 10
96.8371394231
 20
2.7671274038
 10
96.8704927885
 20
2.7370793269
 10
96.9008413462
 20
2.7040264423
 10
96.9272836538
 20
2.6691706731
 10
96.9495192308
 20
2.6325120192
 10
96.9675480769
 20
2.5940504808
 10
96.9816706731
 20
2.5534855769
 10
96.9918870192
 20
2.5111177885
 10
96.9978966346
 20
2.4669471154
 10
97.0
 20
2.4209735577
 10
97.0
 20
2.4209735577
 10
96.9963942308
 20
2.3581730769
 10
96.9849759615
 20
2.2983774038
 10
96.9663461538
 20
2.2418870192
 10
96.9399038462
 20
2.1881009615
 10
96.9068509615
 20
2.1388221154
 10
96.8671875
 20
2.0949519231
 10
96.8215144231
 20
2.0561899038
 10
96.7692307692
 20
2.0228365385
 10
96.7130408654
 20
1.99609375
 10
96.6544471154
 20
1.9768629808
 10
96.5940504808
 20
1.9654447115
 10
96.53125
 20
1.9615384615
 10
96.53125
 20
1.9615384615
 10
96.4708533654
 20
1.9651442308
 10
96.4125600962
 20
1.9762620192
 10
96.3563701923
 20
1.9948918269
 10
96.3025841346
 20
2.0207331731
 10
96.2527043269
 20
2.0534855769
 10
96.2085336538
 20
2.0922475962
 10
96.1697716346
 20
2.1370192308
 10
96.1370192308
 20
2.1878004808
 10
96.1108774038
 20
2.2427884615
 10
96.0919471154
 20
2.2992788462
 10
96.0808293269
 20
2.3578725962
 10
96.0769230769
 20
2.4182692308
 10
96.0769230769
 20
2.4182692308
 10
96.0793269231
 20
2.4645432692
 10
96.0862379808
 20
2.5123197115
 10
96.09765625
 20
2.5609975962
 10
96.1135817308
 20
2.6108774038
 10
96.1237980769
 20
2.63671875
 10
96.1355168269
 20
2.6640625
 10
96.1493389423
 20
2.6923076923
 10
96.1646634615
 20
2.7220552885
 10
96.1820913462
 20
2.7533052885
 10
96.2010216346
 20
2.7854567308
 10
96.2220552885
 20
2.8191105769
 10
96.2445913462
 20
2.8539663462
 10
96.2445913462
 20
2.8539663462
 10
96.6923076923
 20
3.5384615385
  0
LWPOLYLINE
  5
12D
330
1F
100
AcDbEntity
  8
0
  6
Continuous
 62
     7
100
AcDbPolyline
 90
       68
 70
   128
 43
0.0
 10
96.5270400047
 20
2.7115384615
 10
96.4927884615
 20
2.7100360577
 10
96.4600360577
 20
2.7061298077
 10
96.4290865385
 20
2.69921875
 10
96.3999399038
 20
2.6899038462
 10
96.3722956731
 20
2.6775841346
 10
96.3461538462
 20
2.6625600962
 10
96.3218149038
 20
2.6448317308
 10
96.2989783654
 20
2.6243990385
 10
96.2785456731
 20
2.6021634615
 10
96.2608173077
 20
2.5784254808
 10
96.2457932692
 20
2.5537860577
 10
96.2334735577
 20
2.5279447115
 10
96.2238581731
 20
2.5009014423
 10
96.2169471154
 20
2.47265625
 10
96.2130408654
 20
2.4435096154
 10
96.2115384615
 20
2.4128605769
 10
96.2115384615
 20
2.4128605769
 10
96.2130408654
 20
2.3825120192
 10
96.2175480769
 20
2.3536658654
 10
96.2250600962
 20
2.3254206731
 10
96.2355769231
 20
2.2986778846
 10
96.2487980769
 20
2.2728365385
 10
96.2653245192
 20
2.2484975962
 10
96.2845552885
 20
2.2247596154
 10
96.3070913462
 20
2.2025240385
 10
96.3317307692
 20
2.1820913462
 10
96.3575721154
 20
2.1643629808
 10
96.3846153846
 20
2.1493389423
 10
96.4128605769
 20
2.1373197115
 10
96.4423076923
 20
2.1277043269
 10
96.4732572115
 20
2.1207932692
 10
96.5051081731
 20
2.1168870192
 10
96.5384615385
 20
2.1153846154
 10
96.5384615385
 20
2.1153846154
 10
96.5718149038
 20
2.1168870192
 10
96.6036658654
 20
2.1207932692
 10
96.6346153846
 20
2.1277043269
 10
96.6640625
 20
2.1373197115
 10
96.6923076923
 20
2.1493389423
 10
96.7193509615
 20
2.1643629808
 10
96.7448918269
 20
2.1820913462
 10
96.76953125
 20
2.2025240385
 10
96.7920673077
 20
2.2247596154
 10
96.8115985577
 20
2.2484975962
 10
96.8278245192
 20
2.2728365385
 10
96.8413461538
 20
2.2986778846
 10
96.8518629808
 20
2.3254206731
 10
96.859375
 20
2.3536658654
 10
96.8638822115
 20
2.3825120192
 10
96.8653846154
 20
2.4128605769
 10
96.8653846154
 20
2.4128605769
 10
96.8638822115
 20
2.4435096154
 10
96.8590745192
 20
2.47265625
 10
96.8515625
 20
2.5009014423
 10
96.8407451923
 20
2.5279447115
 10
96.8266225962
 20
2.5537860577
 10
96.8094951923
 20
2.5784254808
 10
96.7893629808
 20
2.6021634615
 10
96.7662259615
 20
2.6243990385
 10
96.7406850962
 20
2.6448317308
 10
96.7142427885
 20
2.6625600962
 10
96.6859975962
 20
2.6775841346
 10
96.6568509615
 20
2.6899038462
 10
96.6262019231
 20
2.69921875
 10
96.5946514423
 20
2.7061298077
 10
96.5612980769
 20
2.7100360577
 10
96.5270432692
 20
2.7115384615
  0
ENDSEC
  0
SECTION
  2
OBJECTS
  0
DICTIONARY
  5
C
330
0
100
AcDbDictionary
281
     1
  3
ACAD_GROUP
350
D
  3
ACAD_LAYOUT
350
1A
  3
ACAD_MLINESTYLE
350
17
  3
ACAD_PLOTSETTINGS
350
19
  3
ACAD_PLOTSTYLENAME
350
E
  3
ACAD_SCALELIST
350
47
  3
DWGPROPS
350
12E
  0
DICTIONARY
  5
D
102
{ACAD_REACTORS
330
C
102
}
330
C
100
AcDbDictionary
281
     1
  0
DICTIONARY
  5
1A
102
{ACAD_REACTORS
330
C
102
}
330
C
100
AcDbDictionary
281
     1
  3
Layout1
350
1E
  3
Layout2
350
26
  3
Model
350
22
  0
DICTIONARY
  5
17
102
{ACAD_REACTORS
330
C
102
}
330
C
100
AcDbDictionary
281
     1
  3
Standard
350
18
  0
DICTIONARY
  5
19
102
{ACAD_REACTORS
330
C
102
}
330
C
100
AcDbDictionary
281
     1
  0
ACDBDICTIONARYWDFLT
  5
E
102
{ACAD_REACTORS
330
C
102
}
330
C
100
AcDbDictionary
281
     1
  3
Normal
350
F
100
AcDbDictionaryWithDefault
340
F
  0
DICTIONARY
  5
47
102
{ACAD_REACTORS
330
C
102
}
330
C
100
AcDbDictionary
281
     1
  3
A0
350
48
  3
A1
350
49
  3
A2
350
4A
  3
A3
350
4B
  3
A4
350
4C
  3
A5
350
4D
  3
A6
350
4E
  3
A7
350
4F
  3
A8
350
50
  3
A9
350
51
  3
B0
350
52
  3
B1
350
53
  3
B2
350
54
  3
B3
350
55
  3
B4
350
56
  3
B5
350
57
  3
B6
350
58
  0
XRECORD
  5
12E
102
{ACAD_REACTORS
330
C
102
}
330
C
100
AcDbXrecord
280
     1
  1
DWGPROPS COOKIE
  2

  3

  4

  6

  7

  8
nino.hribernik
  9

300
=
301
=
302
=
303
=
304
=
305
=
306
=
307
=
308
=
309
=
 40
0.0
 41
2461111.342418449
 42
2461111.342561806
  1

 90
        0
  0
LAYOUT
  5
1E
102
{ACAD_REACTORS
330
1A
102
}
330
1A
100
AcDbPlotSettings
  1

  2
none_device
  4

  6

 40
0.0
 41
0.0
 42
0.0
 43
0.0
 44
0.0
 45
0.0
 46
0.0
 47
0.0
 48
0.0
 49
0.0
140
0.0
141
0.0
142
1.0
143
1.0
 70
   688
 72
     1
 73
     0
 74
     5
  7

 75
    16
147
1.0
148
0.0
149
0.0
100
AcDbLayout
  1
Layout1
 70
     1
 71
     1
 10
0.0
 20
0.0
 11
420.0
 21
297.0
 12
0.0
 22
0.0
 32
0.0
 14
1.0000000000E+20
 24
1.0000000000E+20
 34
1.0000000000E+20
 15
-1.0000000000E+20
 25
-1.0000000000E+20
 35
-1.0000000000E+20
146
0.0
 13
0.0
 23
0.0
 33
0.0
 16
1.0
 26
0.0
 36
0.0
 17
0.0
 27
1.0
 37
0.0
 76
     0
330
1B
  0
LAYOUT
  5
26
102
{ACAD_REACTORS
330
1A
102
}
330
1A
100
AcDbPlotSettings
  1

  2
none_device
  4

  6

 40
0.0
 41
0.0
 42
0.0
 43
0.0
 44
0.0
 45
0.0
 46
0.0
 47
0.0
 48
0.0
 49
0.0
140
0.0
141
0.0
142
1.0
143
1.0
 70
   688
 72
     1
 73
     0
 74
     5
  7

 75
    16
147
1.0
148
0.0
149
0.0
100
AcDbLayout
  1
Layout2
 70
     1
 71
     2
 10
0.0
 20
0.0
 11
0.0
 21
0.0
 12
0.0
 22
0.0
 32
0.0
 14
0.0
 24
0.0
 34
0.0
 15
0.0
 25
0.0
 35
0.0
146
0.0
 13
0.0
 23
0.0
 33
0.0
 16
1.0
 26
0.0
 36
0.0
 17
0.0
 27
1.0
 37
0.0
 76
     0
330
23
  0
LAYOUT
  5
22
102
{ACAD_REACTORS
330
1A
102
}
330
1A
100
AcDbPlotSettings
  1

  2
none_device
  4
ANSI_A_(11.00_x_8.50_Inches)
  6

 40
6.35
 41
19.05
 42
6.35000508
 43
19.05000254
 44
279.4
 45
215.9
 46
-9.14400254
 47
41.40199873
 48
0.0
 49
0.0
140
0.0
141
0.0
142
0.11
143
1.0
 70
  1696
 72
     0
 73
     0
 74
     0
  7

 75
     0
147
0.0179189148
148
-1300.4909072572
149
0.0
100
AcDbLayout
  1
Model
 70
     1
 71
     0
 10
0.0
 20
0.0
 11
420.0
 21
297.0
 12
0.0
 22
0.0
 32
0.0
 14
1.5
 24
0.0
 34
0.0
 15
100.5
 25
34.0
 35
0.0
146
0.0
 13
0.0
 23
0.0
 33
0.0
 16
1.0
 26
0.0
 36
0.0
 17
0.0
 27
1.0
 37
0.0
 76
     0
330
1F
331
29
  0
MLINESTYLE
  5
18
102
{ACAD_REACTORS
330
17
102
}
330
17
100
AcDbMlineStyle
  2
Standard
 70
     0
  3

 62
   256
 51
90.0
 52
90.0
 71
     2
 49
0.5
 62
   256
  6
BYLAYER
 49
-0.5
 62
   256
  6
BYLAYER
  0
ACDBPLACEHOLDER
  5
F
102
{ACAD_REACTORS
330
E
102
}
330
E
  0
SCALE
  5
48
102
{ACAD_REACTORS
330
47
102
}
330
47
100
AcDbScale
 70
     0
300
1:1
140
1.0
141
1.0
290
     1
  0
SCALE
  5
49
102
{ACAD_REACTORS
330
47
102
}
330
47
100
AcDbScale
 70
     0
300
1:2
140
1.0
141
2.0
290
     0
  0
SCALE
  5
4A
102
{ACAD_REACTORS
330
47
102
}
330
47
100
AcDbScale
 70
     0
300
1:4
140
1.0
141
4.0
290
     0
  0
SCALE
  5
4B
102
{ACAD_REACTORS
330
47
102
}
330
47
100
AcDbScale
 70
     0
300
1:5
140
1.0
141
5.0
290
     0
  0
SCALE
  5
4C
102
{ACAD_REACTORS
330
47
102
}
330
47
100
AcDbScale
 70
     0
300
1:8
140
1.0
141
8.0
290
     0
  0
SCALE
  5
4D
102
{ACAD_REACTORS
330
47
102
}
330
47
100
AcDbScale
 70
     0
300
1:10
140
1.0
141
10.0
290
     0
  0
SCALE
  5
4E
102
{ACAD_REACTORS
330
47
102
}
330
47
100
AcDbScale
 70
     0
300
1:16
140
1.0
141
16.0
290
     0
  0
SCALE
  5
4F
102
{ACAD_REACTORS
330
47
102
}
330
47
100
AcDbScale
 70
     0
300
1:20
140
1.0
141
20.0
290
     0
  0
SCALE
  5
50
102
{ACAD_REACTORS
330
47
102
}
330
47
100
AcDbScale
 70
     0
300
1:30
140
1.0
141
30.0
290
     0
  0
SCALE
  5
51
102
{ACAD_REACTORS
330
47
102
}
330
47
100
AcDbScale
 70
     0
300
1:40
140
1.0
141
40.0
290
     0
  0
SCALE
  5
52
102
{ACAD_REACTORS
330
47
102
}
330
47
100
AcDbScale
 70
     0
300
1:50
140
1.0
141
50.0
290
     0
  0
SCALE
  5
53
102
{ACAD_REACTORS
330
47
102
}
330
47
100
AcDbScale
 70
     0
300
1:100
140
1.0
141
100.0
290
     0
  0
SCALE
  5
54
102
{ACAD_REACTORS
330
47
102
}
330
47
100
AcDbScale
 70
     0
300
2:1
140
2.0
141
1.0
290
     0
  0
SCALE
  5
55
102
{ACAD_REACTORS
330
47
102
}
330
47
100
AcDbScale
 70
     0
300
4:1
140
4.0
141
1.0
290
     0
  0
SCALE
  5
56
102
{ACAD_REACTORS
330
47
102
}
330
47
100
AcDbScale
 70
     0
300
8:1
140
8.0
141
1.0
290
     0
  0
SCALE
  5
57
102
{ACAD_REACTORS
330
47
102
}
330
47
100
AcDbScale
 70
     0
300
10:1
140
10.0
141
1.0
290
     0
  0
SCALE
  5
58
102
{ACAD_REACTORS
330
47
102
}
330
47
100
AcDbScale
 70
     0
300
100:1
140
100.0
141
1.0
290
     0
  0
ENDSEC
  0
EOF
